Song name
# A B C D E F G H I J K L M N O P Q R S T U V W X Y Z

Rem - Romance tab

------------------------------------------------------------------------
		ROMANCE - REM
------------------------------------------------------------------------
Tabbed by: Barnaby Wilde
Email:

Intro/Riff/Chorus
e|-0-0--0-0-0----------|
B|-4-5h-4-0-0-00000000-|
G|-4-4--4-0-2-22222222-|
D|----------2----------|
A|---------------------|
E|---------------------|

e|-0-0--0----0-0--0--0--|
B|-4-5h-4-0--0--0--0--0-|
G|-4-4--4--0-2---2--2---|
D|-----------2----------|
A|----------------------|
E|----------------------|

Verse
e|-0---0---0---0---0---|
B|-3---5---0---0---0---|
G|-4---6---9---9---9---|
D|-4---6---9---9---9---|
A|-2---4---7---6---0---|
E|---------0---0---0---|

Bridge to Chorus
e|-2---3-2---|
B|-3---3-3---|
G|-2---2-2---|
D|-0---0-0---|
A|-----------|
E|-----------|

Middle Bridge
e|----------------------------|
B|-3---000-0---000-3----------|
G|-0---000-2---000-0----------|
D|----------------------------|
A|----------------------------|
E|----------------------------|

Middle Bridge (2nd Half/ Mirror to first)
e|--------------------------------------------------|
B|-15-15-15-15-15-15-15-15--0--0--0--0--0--0--0--0--|
G|--0--0--0--0--0--0--0--0-14-14-14-14-14-14-14-14--|
D|--------------------------------------------------|
A|--------------------------------------------x2----|
E|--------------------------------------------------|

End
e|-0-0--0-0---|
B|-4-5h-4-0---|
G|-4-4--4-----|
D|------------|
A|------------|
E|------------|
Tap to rate this tab
 
# A B C D E F G H I J K L M N O P Q R S T U V W X Y Z