Rem - Pop Song 89 tab

------------------------------------------------------------------------
		POP SONG 89 - REM
------------------------------------------------------------------------
Tabbed by: Barnaby Wilde
Email:

Verse
I added a walkdown at the end to mimic the bass, however Peter doesn't actually 
play it.  It's just a fun addition.

e|-0---2---0---2-2-0---|
B|-2---3---2---3-2-0---|
G|-2---2---2---2-2-0---|
D|-2---0---2---0-0-0---|
A|-0-------0-----------|
E|-0-------0-----------|

Riff
e|-8--------------------------|
B|--5-------------------------|
G|---7-7-5-5-7-7>9-7-7-9h-0---|
D|-----------------------9----|
A|----------------------------|
E|----------------------------|

Chorus
e|-0-0-0-3-3-3-2-2-0-0-0-0---|
B|-0--0--3--3--3--3--0--0----|
G|-1-----0-----2-----4-------|
D|-2-----0-----0-----4-------|
A|-2-----2-----------2-------|
E|-0-----3-----------0-------|

Break
e|-0---0---0---0---0-------|
B|-0---0---0---0---0-7b!---|
G|-4---9---4---9---7-------|
D|-4---9---4---9---7-------|
A|-2---7---2---7---5-------|
E|-0---0---0---0---0-------|
Tap to rate this tab
 
# A B C D E F G H I J K L M N O P Q R S T U V W X Y Z