Song name
# A B C D E F G H I J K L M N O P Q R S T U V W X Y Z

Rem - Get Up tab

------------------------------------------------------------------------
		GET UP - REM
------------------------------------------------------------------------
Tabbed by: Barnaby Wilde
Email:

Intro/ Chorus
e|-0---0----0---0---0---|
B|-0---0----0---0---0---|
G|-9---8----9---4---6---|
D|-9---9---10---5---7---|
A|-7---9---10---5---7---|
E|-0---7----8---3---5---|

e|-0---0----0---0---6---|
B|-0---0----0---0---6---|
G|-9---8----9---4---7---|
D|-9---9---10---5---8---|
A|-7---9---10---5---8---|
E|-0---7----8---3---6---|

Slide on Second Half of Chorus
e|---------------------|
B|---------------------|
G|-7>9-----3>5---------|
D|-7>9-7>9-3>5-3>5>8---|
A|-----7>9-----3>5>8---|
E|---------------------|

Verse
e|-xx-55-xx-55-xx-55-xx-33-55-xx-55-xx-55-33---|
B|-xx-55-xx-55-xx-55-xx-33-77-xx-77-xx-77-33---|
G|-xx-66-xx-66-xx-66-xx-44-77-xx-77-xx-77-44---|
D|-xx-77-xx-77-xx-77-xx-55-77-xx-77-xx-77-55---|
A|-xx-77-xx-77-xx-77-xx-55-55----55----55-55---|
E|-xx-55-xx-55-xx-55-xx-33-55----55----55-33---|

Middle Bridge
(All Feedback)
e|---------|
B|---7--7--|
G|---7--7--|
D|-7--7----|
A|-7--7----|
E|---------|

End
Hold Bb
A
Tap to rate this tab
 
# A B C D E F G H I J K L M N O P Q R S T U V W X Y Z