Song name
# A B C D E F G H I J K L M N O P Q R S T U V W X Y Z

Rem - Stand tab

------------------------------------------------------------------------
		STAND - REM
------------------------------------------------------------------------
Tabbed by: Barnaby Wilde
Email:

Intro
e|------------|
B|-0----------|
G|-4b---2-0---|
D|------------|
A|------------|
E|------------|

Chorus
e|--------------------|
B|---0----------------|
G|--1-2-2-6-4---9-8-0-|
D|-2------6-4---9-9-0-|
A|----------2---------|
E|--------------------|

e|--------------|
B|---0----------|
G|--1-2-2-6-4---|
D|-2------6-4---|
A|----------2---|
E|--------------|

Verse
e|------------------------------|
B|---0-----0--------------------|
G|----9<----7<-6-6-5-4-4-4-4-4--|
D|--9-----7----6-6-5-4-4-4-4-4--|
A|-7-----5-----4-4-3-2-0-2-2-0--|
E|------------------------------|

e|-------------3-5-7--|
B|---0-----0---3-5-7--|
G|----9<----7<-4-6-8--|
D|--9-----7----5-7-9--|
A|-7-----5-----5-7-9--|
E|-------------3-5-7--|

Lead
e|--------------------------------------------------------------|
B|-3-5h-5-3-3-5h-3-3-5h-5-3-5-3-5-3-8-8-0-5-5-0-3>5-5-3-3-0-3-5-|
G|-------4------4-----------------------------------------------|
D|--------------------------------------------------------------|
A|--------------------------------------------------------------|
E|--------------------------------------------------------------|

e|------------------------------------------------------------2>-|
B|-8-7-8>10-10-10-10-10-8-7-5-5-7h---3p-0-5-3p-0-5-5-3---3-5-5---|
G|--------------------------------9-4------4------4---4-4--------|
D|---------------------------------------------------------------|
A|---------------------------------------------------------------|
E|---------------------------------------------------------------|

End (Key Changes)
e|-2---2---6-4---|
B|-2---2---6-4---|
G|-3---4---8-6---|
D|-4---4---8-6---|
A|-4---2---6-4---|
E|-2---2---6-4---|

e|-4---4----8-6---|
B|-4---4----8-6---|
G|-5---6---10-8---|
D|-6---6---10-8---|
A|-6---4----8-6---|
E|-4---4----8-6---|
End on Ab
Tap to rate this tab
 
# A B C D E F G H I J K L M N O P Q R S T U V W X Y Z