Rem - World Leader Pretend tab

------------------------------------------------------------------------
		WORLD LEADER PRETEND - REM
------------------------------------------------------------------------
Tabbed by: Barnaby Wilde
Email:

Intro/Chorus
e|-0--0--0-----------2--2-2-2-0---|
B|-0---0--0----------3---3---3----|
G|-0-----------------4-----4------|
D|-2-2--2--0-2-4-2-0-4-4----------|
A|-2-----------------2------------|
E|-0-----------------2------------|

e|-0--0--0-----------2--2-0--0--0--3--3---0--0---|
B|-0---0--0----------3---3-3--3--3-3---3--2---2--|
G|-0-----------------4------4--4---0-0--0-2-2--2-|
D|-2-2--2--0-2-4-2-0-4-4-----------0------0------|
A|-2-----------------2-------------2------0------|
E|-0-----------------2-------------3------0------|

Verse
e|-2--2---3--3---0--0---2--2-3-2---|
B|-3---3--3---3--1---1--3------3---|
G|-2------0----0-0----0-2------2---|
D|-0-0--0-0-0----2-2----0-0----0---|
A|--------2------3-----------------|
E|--------3------0-----------------|

Middle Bridge
Am-C (x3)
G-A (ala Chorus)

Steel Slide Guitar
e|-7>9>11>12>14-------12------|
c|-7>9>11>12>14-16<12<12------|

e|-7>9>11>12-17<15-|
c|-7>9>11>12-------|

e|-9---12--12--12<9>11>13--|
c|-9>12--12--12--<9>11>13--|

End on Em
Tap to rate this tab
 
# A B C D E F G H I J K L M N O P Q R S T U V W X Y Z