Song name
# A B C D E F G H I J K L M N O P Q R S T U V W X Y Z

Rem - The Wrong Child tab

------------------------------------------------------------------------
		THE WRONG CHILD - REM
------------------------------------------------------------------------
Tabbed by: Barnaby Wilde
Email:

Verse (12 String)
e|-0---0----|
B|-0---0----|
G|-0---2----|
D|-2---4----|
A|-0---0----|
E|-0---0----|

Verse (Mandolin)
e|-777553000000-00---|
A|-000000045402-20---|
D|-------------------|
G|-------------------|

Chorus (Guitar 1)
e|-3---2---0---0---0---0---0-----------|
B|-0---3---2---0---3---3---3-----------|
G|-0---2---3---2---4---4---0-2-4h-2-0--|
D|-0---0---0---2---5---4---2---------0-|
A|-x-----------0---0---0---0-----------|
E|-3-----------0---0---0---0-----------|

Chorus (Guitar 2)
e|-3-3-2-2-0-0-----3---2----2-2---|
B|------------3-0---3---3--3--3---|
G|----------------4---4---0---0---|
D|---------------5---4---2----2---|
A|--------------------------------|
E|--------------------------------|

Chorus (Mandolin)
e|---0---0---0---0--0-0-0-0---|
A|--0-0-0-0-0-0-0-0-0-0-0-0---|
D|-5---4---2---0----5-4-2-2---|
G|------------------0-0-0-0---|

Middle Bridge
e|----3-2---3-2---3---2----2-2---|
B|---3-----3---0---3---3--3--3---|
G|--2-----2------4---4---0---0---|
D|-0-----0------5---4---2----2---|
A|-------------------------------|
E|-------------------------------|

Middle Bridge (Mandolin)
e|----3-2---3-2--0---0---0--|
A|---0-----0----0-0-0-0-0-0-|
D|--0-----0----5---4---2----|
G|-2-----2------------------|

Last Chord
e|-5-|
B|-5-|
G|-7-|
D|-7-|
A|-0-|
E|-0-|

e|-5-|
A|-2-|
D|-2-|
G|-0-|
Tap to rate this tab
 
# A B C D E F G H I J K L M N O P Q R S T U V W X Y Z