Song name
# A B C D E F G H I J K L M N O P Q R S T U V W X Y Z

Rem - Orange Crush tab

------------------------------------------------------------------------
		ORANGE CRUSH - REM
------------------------------------------------------------------------
Tabbed by: Barnaby Wilde
Email:

Intro
e|-0--|
B|-0--|
G|-9--|
D|-9--|
A|-0--|
E|-0--|

Verse
e|-0-0-0-0-0-------0--0---|
B|-0--0---0-0-0-------0---|
G|-9---------7----7-0-9---|
D|-9-----------5-7----9---|
A|-0------------------0---|
E|-0------------------0---|

Chorus
e|-0---0----2---0--2---0--2---0---|
B|-0-0--0-0-4-4--4-2-2--2-4-4--4--|
G|-1--1--1--4--4---2------4--4----|
D|-2--------4------4--4---4-------|
A|-2--------2------4------2-------|
E|-0--------2------2------2-------|

Middle Bridge
e|---12-----------14-10--12-----------14-10---|
B|-12-------12--10-----12-------12--10--------|
G|------------12------------------12----------|
D|--------12------------------12--------------|
A|--------------------------------------------|
E|--------------------------------------------|
Tap to rate this tab
# A B C D E F G H I J K L M N O P Q R S T U V W X Y Z