Song name
# A B C D E F G H I J K L M N O P Q R S T U V W X Y Z

Rem - Turn You Inside-out tab

-----------------------------------------------------------------------
		Turn You Inside-Out - REM
-----------------------------------------------------------------------
Tabbed by: Barnaby Wilde
Email:

Intro:
e|-2--|
B|-0--|
G|-4--|
D|-4--|
A|----|
E|----|

Verse/Chorus:
Walk the B string down to mirror bass 
e|-2-2-2-2-2-2-2-2-2-2-0---0--|
B|-0-0-0-3p0-0-0-0-3p0-0---3--|
G|-4-4-4-4-4-4-4-4-4-4-2---2--|
D|-4-4-4-4-4-4-4-4-4-4-2---2--|
A|----------------------------|
E|----------------------------|

Bridge:
e|-0---0-|
B|-0---3-|
G|-1---2-|
D|-2---0-|
A|-2---0-|
E|-0---0-|

Middle Bridge:
e|-2--|
B|-2--|
G|-3--|
D|-4--|
A|-4--|
E|-2--|

e|-14-|
B|-14-|
G|-15-|
D|----|
A|----|
E|----|

Outro:
e|-0-0-0-0-0-0-0-0-0-0-0---0-0--0------0--|
B|-0-0-0-0-0-3p0-0-0-0-5---5-7h----3p0----|
G|-4-4-4-4-4-4-4-4-4-4-7---7-7-7-4----4-2-|
D|-4-4-4-4-4-4-4-4-4-4-0---0-0---4------2-|
A|----------------------------------------|
E|----------------------------------------|

Final Walk Down:
e|-0-0-0-0-0---|
B|-0-5-0-0-0---|
G|-4-0-7-6-0---|
D|-4-0-0-0-0---|
A|-------------|
E|-------------|
Tap to rate this tab
# A B C D E F G H I J K L M N O P Q R S T U V W X Y Z