Song name
# A B C D E F G H I J K L M N O P Q R S T U V W X Y Z

Rem - I Remember California tab

-----------------------------------------------------------------------
		I REMEMBER CALIFORNIA - REM
-----------------------------------------------------------------------
Tabbed by: Barnaby Wilde
Email:

Intro/ Chorus
e|---------------------|
B|--1-0-1-0----3-1-0---|
G|---------------------|
D|---------------------|
A|---------2-3---------|
E|-0----------1--------|

Verse:
e|----------0-0--|
B|-----------0---|
G|---------------|
D|-(2)---(2)-----|
A|-(2)---(3)-----|
E|-(0)---(0)-----|

End:
e|----2----0--7--0--0---|
B|-----0----0--0--0--0--|
G|-2>4--4>9--9--9--9--0-|
D|----------------------|
A|----------------------|
E|----------------------|
Tap to rate this tab
# A B C D E F G H I J K L M N O P Q R S T U V W X Y Z