Song name
# A B C D E F G H I J K L M N O P Q R S T U V W X Y Z

Rem - Untitled tab

-----------------------------------------------------------------------
		UNTITLED - REM
-----------------------------------------------------------------------
Tabbed by: Barnaby Wilde
Email:

Verse:
e|-0---0-0-0---0-0-0-0---|
B|-8---5-3-1---3-1-3>8---|
G|-0---0-0-0---0-0-0-0---|
D|-----------------------|
A|-----------------------|
E|-----------------------|

e|-0---0-0-0---0-0-0-0---0---0---0-0-0-0-0----|
B|-8---5-3-1---3-1-3>5---3---5---3-3-5-3-5>8--|
G|-0---0-0-0---0-0-0-0---0---0---0-0-0-0-0----|
D|--------------------------------------------|
A|--------------------------------------------|
E|--------------------------------------------|

Chorus:
e|-1---0-1---3---|
B|-1---1-1---3---|
G|-2---0-2---4---|
D|-3---2-3---5---|
A|-3---3-3---5---|
E|-1---0-1---3---|
Tap to rate this tab
# A B C D E F G H I J K L M N O P Q R S T U V W X Y Z