Song name
# A B C D E F G H I J K L M N O P Q R S T U V W X Y Z

Rem - Orange Crush tab

Tuning: Standard (EADGBE)

W: 1/1
H: 1/2
Q: 1/4
E: 1/8
S: 1/16

Intro:

   1 + 2 + 3 + 4 + 
E|-0000000000000000-|
B|-0000000000000000-|
G|-9999999999999999-|
D|-9999999999999999-|
A|-7777777777777777-|
E|------------------|
   SSSSSSSSSSSSSSSS

Verse: (6x)

   1 + 2 + 3 + 4 +   1 + 2 + 3 + 4 +   1 + 2 + 3 + 4 +   1 + 2 + 3 + 4 +
E|-0---0-0(0)------|-0---0-0-----0---|-----------------|-------0-----0---|
B|---0-------------|---0-------0---0-|-3-----0---------|---3-------3---3-|
G|-----------------|-----------------|-------------0---|-2---------------|
D|-----------------|-----------------|-----------------|-----------------|
A|-----------------|-----------------|-----------------|-----------------|
E|-----------------|-----------------|-----------------|-----------------|
     E E E E(H)        E E E Q   E E E   Q.    Q.    Q     E  Q  Q   H H H

Chorus: (2x)

 (Use E chord)     (Use B)           (Use F#)          (Use B again)

  1 + 2 + 3 + 4 +   1 + 2 + 3 + 4 +   1 + 2 + 3 + 4 +   1 + 2 + 3 + 4 + 
|-------0---------|-----------------|-------2---------|-----------------|
|-----0-----0-----|-------4---------|-----2-----------|-------4---------|
|---1-----------0-|-----4-----4-----|-----------3-----|-----4-----4-----|
|-----------------|---4-----------4-|---4-----------4-|---4-----------4-|
|-----------------|-2---------------|-----------------|-2---------------|
|-0---------------|-----------------|-2---------------|-----------------|
  E E E Q   Q   E   E E E Q   Q   E   E E E Q   Q   E   E E E Q   Q   E

Verse (6x)

Chorus (2x)

Bridge (Bass and Drums only)

Solo: (2x) Sustain all notes until end of solo

  1  + 2 +  3 + 4 +            1  + 2 +  3 + 4  +   1 + 2 + 3 + 4 + 
|--------12------->-|(12)----|--------------------|-----------------|
|-12----------------|--------|--------12----------|-------7---------|
|-------------------|--------|---------------12---|-------------7---|
|-------------------|--------|-12-----------------|-7---------------|
|-------------------|--------|--------------------|-----------------|
|-------------------|--------|--------------------|-----------------|
  Q.     H        E   W        Q.     Q.     Q      Q.    Q.    Q

Intro: (1x)

Verse: (6x)

Chorus: (4x)

Outro:

  1 + 2  + 3 + 4 +  
|-00000------------||
|-00000------------||
|-99999------------||
|-99999------------||
|-77777------------||
|------------------||
  SSSSSE.  H (rest)

I know some parts look off, but I assure you, this is the best so far. Hope it 
helps. Questions or comments: please email.
Tap to rate this tab
 
# A B C D E F G H I J K L M N O P Q R S T U V W X Y Z