Song name
# A B C D E F G H I J K L M N O P Q R S T U V W X Y Z

Rem - Its The End Of The World As We Know It And I Feel Find tab

I have PURPOSELY not included the lyrics (except the background vocals, which I have to
in my band) for this song, as I find it much easier with this song to concentrate on
measure by measure and ignoring the lyrics, as the lyrical arrangement for this song is 
intense.  This way works best for me:

Verses 1 & 2

  G                  C            X4  Bb 		    Asus
e||:3-----------3-3|-0-------------:||---------------|---------------|
B||:3-----------3-3|-1---------1---:||-3-------------|-3-------------|
G||:0-----------0-0|-0----------0--:||-3-------------|-2-------------|
D||:0--------------|-2------2----2-:||-3-------------|-2-------------|
A||:2--------------|-3-----3-------:||-1-------------|-0-------------|
E||:3--------------|---------------:||---------------|---------------|        2nd Verse
((on 3)Oh, oh…oh………………………)

Chorus
    G      D         A           X3
e||:3------2-------|-0-0-0-0-0-0000:||0-0-0-0-0-0-0-0-|0-0-0-0-0-0-0-0-|
B||:3------3-------|-2-2-2-2-2-2222:||1-1-1-1-1-1-1-1-|1-1-1-1-1-1-1-1-|
G||:0------2-------|-2-2-2-2-2-2222:||0-0-0-0-0-0-0-0-|0-0-0-0-0-0-0-0-|
D||:0------0-------|-2-2-2-2-2-2222:||----------------|----------------|
A||:2--------------|-0-0-0-0-0-2000:||----------------|----------------|
E||:3--------------|---------------:||----------------|----------------|

  It’s the End of the world as we Know it  And I feel Fine

Verse 3
  G                  C            X4  Bb 		    Asus
e||:3-----------3-3|-0-------------:||---------------|---------------|
B||:3-----------3-3|-1---------1---:||-3-------------|-3-------------|
G||:0-----------0-0|-0----------0--:||-3-------------|-2-------------|
D||:0--------------|-2------2----2-:||-3-------------|-2-------------|
A||:2--------------|-3-----3-------:||-1-------------|-0-------------|
E||:3--------------|---------------:||---------------|---------------|
4thx:       (Oh, oh…oh………………………)

Chorus 2
    G      D         A           X3    C                G              X3
e||:3------2-------|-0-0-0-0-0-0000:||:0---0-0-0-------|3---3-3-3------:||
B||:3------3-------|-2-2-2-2-2-2222:||:1-1-1-1-1-1-----|3-3-3-3-3--3-3-:||
G||:0------2-------|-2-2-2-2-2-2222:||:0-0-0-0-0-0-0---|0-0-0-0-0--0-0-:||
D||:0------0-------|-2-2-2-2-2-2222:||:2-2-------2-2---|0-0--------0-0-:||
A||:2--------------|-0-0-0-0-0-2000:||:3-----------3---|2-2----------2-:||
E||:3--------------|---------------:||:----------------|3------------3-:||

1.	It’s the End….                     1.                  I feel Fine
2.	I can’t Stop Time Alone            2:                  Ooooooooooh
3.	I can’t Stop Time Alone            3.00000000000000000000000000000h

  F              F
e|-1------------|---------------|
B|-1------------|---------------|
G|-2------------|---------------|
D|-3------------|---------------|
A|-3------------|---------------|
E|-1------------|---------------|

Chorus
    G      D         A           X3
e||:3------2-------|-0-0-0-0-0-0000:||0-0-0-0-0-0-0-0-|0-0-0-0-0-0-0-0-|
B||:3------3-------|-2-2-2-2-2-2222:||1-1-1-1-1-1-1-1-|1-1-1-1-1-1-1-1-|
G||:0------2-------|-2-2-2-2-2-2222:||0-0-0-0-0-0-0-0-|0-0-0-0-0-0-0-0-|
D||:0------0-------|-2-2-2-2-2-2222:||----------------|----------------|
A||:2--------------|-0-0-0-0-0-2000:||----------------|----------------|
E||:3--------------|---------------:||----------------|----------------|
    All 3 x’s: I can’t…
Bridge

  G                C
e|3-----------3-3|---------------|
B|3-----------3-3|---------------|
G|0-----------0-0|----REST!------|
D|0--------------|----REST!------|
A|2--------------|---------------|
E|3--------------|---------------|

  G                C               Bb              Asus
e|3-----------3-3|-0-------------|---------------|---------------|
B|3-----------3-3|-1---------1---|-3-------------|-2-------------|
G|0-----------0-0|-0----------0--|-3-------------|-3-------------|
D|0--------------|-2------2----2-|-3-------------|-3-------------|
A|2--------------|-3-----3-------|-1-------------|-0-------------|
E|3--------------|---------------|---------------|---------------|
                                                          Right!
Chorus
    G      D         A           X3
e||:3------2-------|-0-0-0-0-0-0000:||0-0-0-0-0-0-0-0-|0-0-0-0-0-0-0-0-|
B||:3------3-------|-2-2-2-2-2-2222:||1-1-1-1-1-1-1-1-|1-1-1-1-1-1-1-1-|
G||:0------2-------|-2-2-2-2-2-2222:||0-0-0-0-0-0-0-0-|0-0-0-0-0-0-0-0-|
D||:0------0-------|-2-2-2-2-2-2222:||----------------|----------------|
A||:2--------------|-0-0-0-0-0-2000:||----------------|----------------|
E||:3--------------|---------------:||----------------|----------------|
    All 3 x’s: I can’t…

e|-3-3-3-3-3-3-3-3-|-3~~~-|
B|-3-3-3-3-3-3-3-3-|-3~~~-|
G|-----------------|------|
D|-----------------|------|
A|-----------------|------|
E|-----------------|------|


Chorus (repeat and fade…first time through, no guitar?)
    G      D         A           X3
e||:3------2-------|-0-0-0-0-0-0000:||0-0-0-0-0-0-0-0-|0-0-0-0-0-0-0-0-|
B||:3------3-------|-2-2-2-2-2-2222:||1-1-1-1-1-1-1-1-|1-1-1-1-1-1-1-1-|
G||:0------2-------|-2-2-2-2-2-2222:||0-0-0-0-0-0-0-0-|0-0-0-0-0-0-0-0-|
D||:0------0-------|-2-2-2-2-2-2222:||----------------|----------------|
A||:2--------------|-0-0-0-0-0-2000:||----------------|----------------|
E||:3--------------|---------------:||----------------|----------------|
    All 3 x’s: I can’t…
Tap to rate this tab
# A B C D E F G H I J K L M N O P Q R S T U V W X Y Z