Song name
# A B C D E F G H I J K L M N O P Q R S T U V W X Y Z

Remady Pr - Honestly tab

Remady feat. Jon - Honestly

This is my first tab, I hope it's correct
I used AP Tuner to take the notes from the song :)

intro/part1(x5)
e|--------------------------------------------0--|
B|-------0-----------------------0----3----2-----|
G|--2---------2------1------2--------------------|
D|-----------------------------------------------|
A|-----------------------------------------------|
E|-----------------------------------------------|
(after 2 times there are some extra notes but I couldn't tab them :/)

part2(x3)
e|-------------------------------------------------------------------------------------------00-00-|
B|-------------00-00-00-0--------------------------------------00-00-00-0--33-33-33-3--22-22-------|
G|-22-22-22-2--------------22-22-22-2--11-11-11-1--22-22-22-2--------------------------------------|
D|-------------------------------------------------------------------------------------------------|
A|-------------------------------------------------------------------------------------------------|
E|-------------------------------------------------------------------------------------------------|

part1(x3)
e|--------------------------------------------0--|
B|-------0-----------------------0----3----2-----|
G|--2---------2------1------2--------------------|
D|-----------------------------------------------|
A|-----------------------------------------------|
E|-----------------------------------------------|

part2(x3)
e|-------------------------------------------------------------------------------------------00-00-|
B|-------------00-00-00-0--------------------------------------00-00-00-0--33-33-33-3--22-22-------|
G|-22-22-22-2--------------22-22-22-2--11-11-11-1--22-22-22-2--------------------------------------|
D|-------------------------------------------------------------------------------------------------|
A|-------------------------------------------------------------------------------------------------|
E|-------------------------------------------------------------------------------------------------|
Tap to rate this tab
 
# A B C D E F G H I J K L M N O P Q R S T U V W X Y Z