Song name
# A B C D E F G H I J K L M N O P Q R S T U V W X Y Z

Remady Pr - No Superstar tab

Hi, this is my first tab so i donīt know really much how to do this but hers we go.
This are all the parts of the song! :D

Intro:

e[------7-12-7-12-10-7-10-10-7-10-10---10-10---10-9----9-9-10-12-|
B[----8------------------------------7-------7------10-----------|
G[--9------------------------------------------------------------|  6 times
D[---------------------------------------------------------------|
A[---------------------------------------------------------------|
E[---------------------------------------------------------------|

Then:

e[---------------------------------------------------------------|
B[--8-8--8-8-10-12-12--12-12-14-15-15--15-15-17-14-14--14-14-15--|
G[---------------------------------------------------------------|
D[---------------------------------------------------------------|
A[---------------------------------------------------------------|
E[---------------------------------------------------------------|

e[--------------------------------------------------------------------------|
B[--9999999-9---12121212121212-12---15151151515151515-15---14141414141414-14|
G[--------------------------------------------------------------------------|
D[--------------------------------------------------------------------------|
A[--------------------------------------------------------------------------|
E[--------------------------------------------------------------------------|

Have to find the rythem!
This is the easiest way i found to play it, good luck!^^
Tap to rate this tab
# A B C D E F G H I J K L M N O P Q R S T U V W X Y Z