Song name
# A B C D E F G H I J K L M N O P Q R S T U V W X Y Z

Remedy Drive - The Skys Alive tab

hey everyone I couldn't find the tab for this song so I decided to write one for it. 
is a great song to jam to with a great opening rif. have fun!


 VERSE 1
 1st GUITAR
e---------------------------------------------|
B--------5---5-----5---7-------5---5-----5---5|
G------4-4---4---6-6---8-----4-4---4---4-4---4|
D---/6-----7---7-----9----/6-----7---4-----4--|  X3
A---------------------------------------------|
E---------------------------------------------|

CHORUS
e-12-7-11-12-7-7-7-7-12-7-11-12-7-7-7-7-12-7-11-12-7-7-7-7-0-0-0-12H14 X4|
B-0--0-0--0--0-0-0-0-0--0-0--0--0-0-0-0-0--0-0--0--0-0-0-0---------------|
G------------------------------------------------------------------------|
D------------------------------------------------------------------------|
A------------------------------------------------------------------------|
E------------------------------------------------------------------------|


the rest of the song is mostly just a progression of the notes above so have fun
Tap to rate this tab
# A B C D E F G H I J K L M N O P Q R S T U V W X Y Z