Song name
# A B C D E F G H I J K L M N O P Q R S T U V W X Y Z

Remember Maine - Forever Ended Today tab

Help us improve GuitareTab! Take a short survey!
e|------------------------------------------------------------------------|
B|------7----8---7-----------5---7---5--------3------------3---5---3------|
G|----0---0----0---0-------0---0---0---0----0---0--------0---0---0---0----|
D|------------------------------------------------------------------------|
A|-7--------------------5-----------------3----------3-3------------------|
E|------------------------------------------------------------------------|

e|------------------------------------------------------------0-0-0---|
B|------7----8---7--------5---7-5-5\7/5------3-----------3----3-3-3---|
G|----0---0----0---0----0---0--------------0---0-------0---0--0-0-0---|
D|------------------------------------------------------------x-x-x---|
A|-7------------------5------------------3--------3-3---------3-3-3---|
E|--------------------------------------------------------------------|

e|-0-0--0--0-0-0--0-0-0-0----0-0-0----------|
B|-7-7--3--3-3-3--3-3-3-3----3-3-3----------|
G|-0-0--0--0-0-0--0-0-0-0----2-2-2----------|
D|-x-x--x--x-x-x--0-0-0-0----0-0-0---x2-----|
A|-7-7--3--3-3-3--x-x-x-x----0-0-0----------|
E|----------------3-3-3-3----x-x-x----------|

e|-0-0-0---0--0-0-0--0-0-0-0---0-0-0---------|
B|-7-7-8---3--3-3-3--3-3-3-3---3-3-3---------|
G|-0-0-0---0--0-0-0--0-0-0-0---2-2-2---------|
D|-x-x-x---x--x-x-x--0-0-0-0---0-0-0---x2----|
A|-7-7-7---3--3-3-3--x-x-x-x---0-0-0---------|
E|-------------------3-3-3-3---x-x-x---------|

e|-0-0--0--0-0-0--0-0-0-0----x-x-0----------|
B|-7-7--3--3-3-3--3-3-3-5----3-3-5----------|
G|-0-0--0--0-0-0--0-0-0-0----0-0-0----------|
D|-x-x--x--x-x-x--0-0-0-0----0-0-0---x2-----|
A|-7-7--3--3-3-3--x-x-x-x----5-5-5----------|
E|----------------3-3-3-3----x-x-x----------|

e|-0-0--0--0-0-0--0-0-0-0----0-0-0----------|
B|-7-7--3--3-3-3--3-3-3-3----3-3-3----------|
G|-0-0--0--0-0-0--0-0-0-0----2-2-2----------|
D|-x-x--x--x-x-x--0-0-0-0----0-0-0---x4-----|
A|-7-7--3--3-3-3--x-x-x-x----0-0-0----------|
E|----------------3-3-3-3----x-x-x----------|

e|--0-0-0-0---0-0-3-3----------------0-0-0-0--0-0-0-0-----|
B|--3-3-3-3---3-3-3-3---8--8--8--8---5-5-5-5--3-3-3-3-----|
G|--0-0-0-0---2-2-2-2---x--x--x--x---0-0-0-0--0-0-0-0-----|
D|--0-0-0-0---0-0-0-0---9--9--9--9---x-x-x-x--x-x-x-x-----|
A|--x-x-x-x---0-0-0-0--10-10-10-10---7-7-7-7--5-5-5-5-----|
E|--3-3-3-3---x-x-x-x-------------------------------------|


e|--0----0----0---0-0---0-0---------|
B|--3----3----3---3-3---3-3---------|
G|--0----0----0---0-0---0-0---------|
D|--0----0----x---x-x---x-x--x4-----|
A|--x----x----2---3-3---5-5---------|
E|--3----2--------------------------|

e|--3----x-0--3---3-3-----|
B|--3----3-3--3---3-3-----|
G|--0----2-2--0---0-0-----|
D|--0----0-0--0---x-x-x3--|
A|--x----x-x--2---3-3-----|
E|--3----2-2--0-----------|

e|-7-7-x-7--5-5-x-5--3-0----5-3-3-------|
B|--------------------------0-0-0-------|
G|-----------------------x2-0-0-0-------|
D|-x-x-x-x--x-x-x-x--x-x----x-x-x-------|
A|-7-7-7-7--5-5-5-5--3-3----5-3-3-------|
E|--------------------------------------|

e|-7-7-7-8-7--5-5-5-x-5-3-5-3-3---7-7-7-8-7--5-5-5-7-5--3-3-3-3--0-0-0-0-|
B|-0-0-0-0-0--0-0-0-0-0-0-0-0-0---0-0-0-0-0--0-0-0-0-0--3-3-3-3--3-3-3-3-|
G|-0-0-0-0-0--0-0-0-0-0-0-0-0-0---0-0-0-0-0--0-0-0-0-0--0-0-0-0--0-0-0-0-|
D|-x-x-x-x-x--x-x-x-x-x-x-x-x-x---x-x-x-x-x--x-x-x-x-x--x-x-x-x--x-x-x-x-|
A|-7-7-7-7-7--5-5-5-5-5-3-5-3-3---7-7-7-7-7--5-5-5-5-5--3-3-3-3--2-2-3-3-|
E|-----------------------------------------------------------------------|

e|--0----0----0---0-0-0-----|
B|--3----3----3---3-3-3-----|
G|--0----2----0---0-0-0-----|
D|--0----0----x---x-x-0-----|
A|--x----0----2---3-2-x-----|
E|--3----x------------------|
palm mute...............

e|--3----0-2--3-2--3-2-----------|
B|--3----3-3--3-3--3-3---3-3-----|
G|--0----2-2--0-0--0-0---0-0-----|
D|--0----0-0--0-0--x-x---x-x-----|
A|--x----x-x--2-2--3-3---5-5-----|
E|--3----2-2--0-0----------------|

e|--3----x-0--3---3-3---------|
B|--3----3-3--3---3-3---3-3---|
G|--0----2-2--0---0-0---0-0---|
D|--0----0-0--0---x-x---x-x---|
A|--x----x-x--2---3-3---5-5---|
E|--3----2-2--0---------------|
Related for Forever Ended Today tab