Song name
# A B C D E F G H I J K L M N O P Q R S T U V W X Y Z

Remember Maine - Dont Mess With Texas tab

I haven't seen any proper tabs for this song, so I decided to tab it for anyone who is
It sounds just about right to me, it was simple to figure out, so hopefully you people
it, my e-mail is ricky_pozeg69@hotmail.com add me or e-mail me and leave comments to 
me what you think, thanks...take care

Tuning: Standard

Verse

“So Yeah, the girl bites her lip...”
|------------------------------------|
|------------------------------------|
|-----7777---------------------------|
|-----7777---5555---9999---44/55-----|
|-----5555---5555—--9999---44/55-----|
|-----5555---3333---7777---22/33-----|

Bridge

“Shouldn’t he just make the move...”
|---------------------------------------------------|
|---------------------------------------------------|
|---------------------------77777777----------------|
|-----99999999---55555555---77777777---77777777-----|
|-----99999999---55555555---55555555---77777777-----|
|-----77777777---33333333--------------55555555-----|

Chorus

“Come on kid, you gotta figure this out, just act stronger...”
|--------------------------------------------------------------------|
|--------------------------------------------------------------------|
|-----------------------------------7-7-7-7-7------------------------|
|-----9-9-9-9-9------5-5-5-5-5------7-7-7-7-7--X2--7-7-7-7-7---------|
|-----9-9-9-9-9--X2--5-5-5-5-5--X2--5-5-5-5-5------7-7-7-7-7--X2-----|
|-----7-7-7-7-7------3-3-3-3-3---------------------5-5-5-5-5---------|

Second Part

“Come on kid, you gotta figure this out, just act stronger..."
|---------------------------------------------------------------------------|
|---------------------------------------------------------------------------|
|-----------------------------------------7-7-7-7-7777----------------------|
|-----9-9-9-9-9999------5-5-5-5-5555------7-7-7-7-7777--X2--7-7-7-7-7777----|
|-----9-9-9-9-9999--X2--5-5-5-5-5555--X2--5-5-5-5-5555------7-7-7-7-7777----|
|-----7-7-7-7-7777------3-3-3-3-3333------------------------5-5-5-5-5555----|
              ****              ****              ****

Back To
Verse 1X
Chorus 1X

End On

|-----|
|-----|
|--7--|
|--7--|
|--5--|
|--5--|
Tap to rate this tab
# A B C D E F G H I J K L M N O P Q R S T U V W X Y Z