Song name
# A B C D E F G H I J K L M N O P Q R S T U V W X Y Z

Remembering Never - To The Girl I Loved For An Hour tab

#----------------------------------PLEASE NOTE---------------------------------#
#This file is the author's own work and represents their interpretation of the #
#song. You may only use this file for private study, scholarship, or research. #
#------------------------------------------------------------------------------#

TO THE GIRL I LOVED FOR AN HOUR
As recorded by Remembering Never
(From the 2002 Album SHE LOOKS SO GOOD IN RED)

Transcribed by jonathanonfire
	

Words and Music by Remembering Never

Gtr I (B Gb B E Ab Db) - 'Left Channel'
Gtr II (B Gb B E Ab Db) - 'Right Channel'

 Intro
  Metalcore Q=125
  N.C.
 4/4
  Gtr I
  TPTPTPTPTPTPTPTP  TPTPTPTPTPTPTPTP
  E E E E E E E E   E E E E E E E E
|-----------------|-----------------|
|-----------------|-----------------|
|-----------------|-----------------|
|-----------------|-----------------|
|---9-6-----9-6---|---9-6-----9-6---|
|-7-----8-7-----8-|-7-----8-7-----8-|
|
| Gtr II
| TPTPTPTPTPTPTPTP  TPTPTPTPTPTPTPTP
| E E E E E E E E   E E E E E E E E
|-----------------|-----------------|
|-----------------|-----------------|
|-----------------|-----------------|
|-----------------|-----------------|
|---9-6-----9-6---|---9-6-----9-6---|
|-7-----8-7-----8-|-7-----8-7-----8-|


                                  D5
  TPTPTPTPTPTPTPTP  TPTPTPTPTPTPTPPM----|
  E E E E E E E E   E E E E E E E T T T T
|-----------------|------------------------||
|-----------------|------------------------||
|-----------------|------------------------||
|-----------------|------------------------||
|---9-6-----9-6---|---9-6-----9-6-0-0-0-0--||
|-7-----8-7-----8-|-7-----8-7-----0-0-0-0--||
|
| TPTPTPTPTPTPTPTP  TPTPTPTPTPTPTP
| E E E E E E E E   E E E E E E E E
|-----------------|------------------------||
|-----------------|------------------------||
|-----------------|------------------------||
|-----------------|------------------------||
|---9-6-----9-6---|---9-6-----9-6----------||
|-7-----8-7-----8-|-7-----8-7-----1--------||


 Breakdown
  D5
  PM------------------------------------|     PM      PM------------|
  E Q       T T T T E Q       T T T T   E E   E   Q   T   T T T E   E
|-------------------------------------|-------------------------------|
|-------------------------------------|-------------------------------|
|-------------------------------------|-------------------------------|
|-------------------------------------|-------------------------------|
|-0---------0-0-0-0-0---------0-0-0-0-|-0-----0-------0---0-0-0-0-----|
|-0---------0-0-0-0-0---------0-0-0-0-|-0-----0-------0---0-0-0-0-----|
|
| E E   E   E       E E   E   E         E E   E   E E E         E   E
|-------------------------------------|-------------------------------|
|-------------------------------------|-------------------------------|
|-------------------------------------|-------------------------------|
|-------------------------------------|-------------------------------|
|-------------------------------------|-------------------------------|
|-0-1b2-1b2-1-------0-1b2-1b2-1-------|-0-1b2-1b2-1-0-1b2-------1b2-1-|


    PM--------|     PM        PM--------------------------|     PM
  E T   T T T E   E E Q       T T T T   E Q       T T T T E E   E   E
|-------------------------------------|-------------------------------|
|-------------------------------------|-------------------------------|
|-------------------------------------|-------------------------------|
|-------------------------------------|-------------------------------|
|---0---0-0-0-0-----0---------0-0-0-0-|-0---------0-0-0-0-0-----0-----|
|---0---0-0-0-0-----0---------0-0-0-0-|-0---------0-0-0-0-0-----0-----|
|
| E E         E   E E E   E   E         E E   E   E       E E   E   E
|-------------------------------------|-------------------------------|
|-------------------------------------|-------------------------------|
|-------------------------------------|-------------------------------|
|-------------------------------------|-------------------------------|
|-------------------------------------|-------------------------------|
|-0-1b2-------1b2-1-0-1b2-1b2-1-------|-0-1b2-1b2-1-------0-1b2-1b2-1-|


    PM--------------------------|
  E T   T T T E   Q   T   T T T E   E
|-------------------------------------||
|-------------------------------------||
|-------------------------------------||
|-------------------------------------||
|---0---0-0-0-0-------0---0-0-0-0-----||
|---0---0-0-0-0-------0---0-0-0-0-----||
|
| E E         E   E E E         E   E
|-------------------------------------||
|-------------------------------------||
|-------------------------------------||
|-------------------------------------||
|-------------------------------------||
|-0-1b2-------1b2-1-0-1b2-------1b2-1-||


 Breakdown continued
  D5
  Gtrs I, II
       PM--------------------
  E Q  T T T T E Q  T T T T
|---------------------------|
|---------------------------|
|---------------------------|
|---------------------------|
|-0----0-0-0-0-0----0-0-0-0-|
|-0----0-0-0-0-0----0-0-0-0-|


 -|   PM   PM--------|     PM------|   PM   PM----|
  E E E Q  T T T T E E   E T T T T E E E Q  T T T T
|----------------------|----------------------------|
|----------------------|----------------------------|
|----------------------|----------------------------|
|----------------------|----------------------------|
|-0---0----0-0-0-0-0---|---0-0-0-0-0---0----0-0-0-0-|
|-0---0----0-0-0-0-0---|---0-0-0-0-0---0----0-0-0-0-|


                                                      Eb5A5
                                                     1/4
  PM-----------|   PM      PM-------------------|
  E Q  T T T T E E E E   E T T T T E Q  T T T T E E   Q  a
|----------------------|----------------------------|------||
|----------------------|----------------------------|------||
|----------------------|----------------------------|------||
|----------------------|----------------------------|------||
|-0----0-0-0-0-0---0---|---0-0-0-0-0----0-0-0-0-0---|-1s=7-||
|-0----0-0-0-0-0---0---|---0-0-0-0-0----0-0-0-0-0---|-1s=7-||


 Outro
  N.C.
 4/4
  E a E a E E E a E a E E   E a E a E E E a E a E E
|-------------------------|-------------------------|
|-------------------------|-------------------------|
|-------------------------|-------------------------|
|-------------------------|-------------------------|
|---7h9-7h9-----7h9-7h9---|---7h9-7h9-----7h9-7h9---|
|-7---------8-7---------8-|-7---------8-7---------8-|


  Gtr I
  E a E a E E E a E a E E   E a E a E E  E  a E a E E
|-------------------------|---------------------------*|
|-------------------------|---------------------------*|
|-------------------------|---------------------------*|
|-------------------------|---------------------------*|
|---7h9-7h9-----7h9-7h9---|---7h9-7h9-------7h9-7h9---*|
|-7---------8-7---------8-|-7---------8--7----------8-*|
|
| Gtr II
| E a E a E E E a E a E E   E a E a E E  E  a E a E E
|-------------------------|---------------------------*|
|-------------------------|---------------------------*|
|-------------------------|---------------------------*|
|-------------------------|-------------<7>-----------*|
|---7h9-7h9-----7h9-7h9---|---7h9-7h9-------7h9-7h9---*|
|-7---------8-7---------8-|-7---------8-------------8-*|



Duration Legend
---------------
W - whole; H - half; Q - quarter; E - 8th; S - 16th; T - 32nd; X - 64th; a - acciaccatura
+ - note tied to previous; . - note dotted; .. - note double dotted
Uncapitalized letters represent notes that are staccato (1/2 duration)
Irregular groupings are notated above the duration line
Duration letters will always appear directly above the note/fret number it represents the
duration for.  Duration letters with no fret number below them represent rests.  Multi-
bar rests are notated in the form Wxn, where n is the number of bars to rest for.  Low
melody durations appear below the staff

Tablature Legend
----------------
 h   - hammer-on
 p   - pull-off
 b   - bend
 pb  - pre-bend
 r   - bend release (if no number after the r, then release immediately)
 /\  - slide into or out of (from/to "nowhere")
 s   - legato slide
 S   - shift slide
 - natural harmonic
[n]  - artificial harmonic
n(n) - tapped harmonic
 ~   - vibrato
 tr  - trill
 T   - tap
 TP  - trem. picking
 PM  - palm muting
\n/  - tremolo bar dip; n = amount to dip
 \n  - tremolo bar down
 n/  - tremolo bar up
/n\  - tremolo bar inverted dip
 =   - hold bend; also acts as connecting device for hammers/pulls
 <> - volume swell (louder/softer)
 x   - on rhythm slash represents muted slash
 o   - on rhythm slash represents single note slash

Misc Legend
-----------
 |  - bar
||  - double bar
||o - repeat start
o|| - repeat end
*|  - double bar (ending)
 :  - bar (freetime)
 $  - Segno
 &  - Coda
Tempo markers -  = BPM(8/16=s8/s16), where s8 = swing 8ths, s16 = swing 16ths


** Generated using Power Tab Editor by Brad Larsen: The Official Power Tab Web Site
Tap to rate this tab
# A B C D E F G H I J K L M N O P Q R S T U V W X Y Z