Song name
# A B C D E F G H I J K L M N O P Q R S T U V W X Y Z

Remembering Never - All That Glitters Is tab

Band - Remembering Never
Song - All That Glitters Is...
Tuning - B flat (A sharp)
Bb,F,Bb,Eb,G,C
Tabbed by - Brendon Keye...dead_in__magazines@hotmail.com

Alright here is the first tab for Remembering Never on ultimate guitar,
theres a few lil sqeaky bits missing, but this is the idea of the song. 
Enjoy, and add some more fucking Remembering Never, cause I will.



   Both Guitars                              
|----------------------------------| 
|----------------------------------| 
|--121212121212121212-1919-8888888-| 
|--xxxxxxxxxxxxxxxxxx-xxxx-xxxxxxx-| 
|--101010101111111111-1717-6666666-| 
|----------------------------------|

  Guitar 1            Guitar 2 w/ effect
|------------|  |----------------------9p8p0------|
|------------|  |--9p8p0-----9p8p0----------9p8p0-|
|------------|  |-------9p8p0-----9p8p0-----------|
|------------|  |---------------------------------|
|-0-0-0-0-00-|  |---------------------------------|
|-0-0-0-0-00-|  |---------------------------------|


   Both Guitars
|---------------------------------|
|------555-----555-----555--------|
|------888-----888-----888--------|
|---------------------------------|
|-00000---00000---00000----0000-0-|
|-00000---00000---00000----0000-0-|
  .....   .....   .....    ....

            Both Guitars
|-------------------------------------------------------|
|-------------------------------------------------------|
|-------------------------------------------------------|
|-------------------------------------------------------|
|-0000000--0000000--0000000----0000000--0000000-0000000-|
|-0000000--0000000--0000000----0000000--0000000-0000000-|
  .......  .......  .......    .......  ....... .......
    
           
          Both Guitars
|--------------------------------|
|--------------------------------|
|--------------------------------|
|--------------------------------|
|-00-00-00-0-00000-000-00-00-0-1-|
|-00-00-00-0-00000-000-00-00-0-1-|
  .. .. .. . ..... ... .. .. .
Tap to rate this tab
# A B C D E F G H I J K L M N O P Q R S T U V W X Y Z