Song name
# A B C D E F G H I J K L M N O P Q R S T U V W X Y Z

Remembrance - One Reckless Sleep tab

1|------------------------------------------------------------|
2|-----------1-------5-----------------1-------5---6----------|
3|---2---4-------2-------------2---4-------2-----------5------|
4|------------------------------------------------------------|
5|------------------------------------------------------------|
6|------------------------------------------------------------|

1|------------------------------------------------------------|
2|-----------1-------5-----------------1-------3--------------|
3|---2---4-------2-------------2---4-------2------------------|
4|------------------------------------------------------------|
5|------------------------------------------------------------|
6|------------------------------------------------------------|

1|------------------------------------------------------------|
2|-----------1-------5-----------------1-------5---6----------|
3|---2---4-------2-------------2---4-------2-----------5------|
4|------------------------------------------------------------|
5|------------------------------------------------------------|
6|------------------------------------------------------------|

1|---------------------------------------------------------------------|
2|-----------1-------5-----------------1-------5-------3-------6---5---|
3|---2---4-------2-------------2---4-------2---------------------------|
4|---------------------------------------------------------------------|
5|---------------------------------------------------------------------|
6|---------------------------------------------------------------------|
Tap to rate this tab
# A B C D E F G H I J K L M N O P Q R S T U V W X Y Z