Guitaretab - guitar tabs
Song name
# A B C D E F G H I J K L M N O P Q R S T U V W X Y Z

Remi Nicole - Soul Back tab

-----------------------------------------------------------------------
			     SOUL BACK- Remi Nicole
-----------------------------------------------------------------------
Tabbed by: Luis Teller
Email: luis067@aol.com

Verse 1:
C		           C
  Iím in a job that I hate   Iím selling my soul,
F				G#		F#
  But I got to make ends meet
C		       C
  Iíve got to put some   clothes on my back
F				  F#7*
  and some trainers on my feet...

Refrain:
(F#)	     C	        C7	         F	    G#    
  F#
  [Ďcause I]   sold my soul to the soul man, itís announced
C	        C7		       F	   G#      F#
  He gave me a check for one hundred quid, and it bounced
C	       C7	     F#7		F#**Jump to the Coda: 3rd x**
  Now Iím sad here, merely a body and no more...
C		      C7
  Iíve gotta get my soul back (my soul back)
         F				G#
Ďcause selling is not what itís for...
[ Tab from: http://www.guitaretab.com/r/remi-nicole/102433.html ]
Verse 2: (same pattern as verse 1)
Iíve got bills to pay the rentís gone up, and they just towed away my car
And now Iím late for what could be my big break and the bus stopís just a walk too 
(refrain)
C	      C7	   	     F
  Give me my soul back, give me my soul back my soul back
    G#           F#
my soul back my soul back
C	      C7		    F			     G#
  Give me my soul back, I want my soul back my soul back my soul back!!!

Solo:
e|-------------------------------------------------------15----15-----|
B|--13------------11----10(11)10--------10---------11----13--------13-|
G|--------12--10------------------------------------------------------|
D|--------------------------------9h10------10h12---------------------|
A|--------------------------------------------------------------------|
E|--------------------------------------------------------------------|

e|--13----12(13)12------/13--17--13------17--13-----------------------|
B|------------------13---------------13----------13------15-----------|
G|---------------------------------------------------14---------------|
D|--------------------------------------------------------------------|
A|--------------------------------------------------------------------|
E|--------------------------------------------------------------------|
                                                              Mr. soul man...(refrain)

**Coda:**
C		    C7		                   F
  I shouldnít have sold it, shouldíve kept hold of it,
        G#                            C
Ďcause selling is not what souls are for...


* strike each note except the top string
Related for Soul Back tab