Guitaretab - guitar tabs
Song name
# A B C D E F G H I J K L M N O P Q R S T U V W X Y Z

Remi Nicole - Go Mr Sunshine tab

Tabbed by: Laura. 

Email: drain_the_blood_1991@hotmail.co.uk

Tuning: Normal

-This was tabbed by looking at the songs video. 

-Hope its good, email me if you have any problems. 

-Listen to the song for timings.

Intro and verse 1-

  X6	  x6     x6     x6     x6     x6     x6     x6
e|-4------4------4------4------4------4------2------0-----|
B|-4------5------4------5------4------5------2------0-----|
G|-4------6------4------6------4------6------2------1-----|  x3
D|-6------6------6------6------6------6------4------2-----|
A|-6------4------6------4------6------4------4------2-----|
E|-4------x------4------x------4------x------2------0-----|

You know its summer when 
you call up and tell your friend 
of your amazing bikini set 
that you bought at Topshop 

You know itís hot outside 
when things are really going right 
and itís still light at night 
and in the pubs, there are no fights 

Chorus-

   X5    x5     x10
e|-2------0------0-----|
B|-3------1------0-----|
G|-2------0------1-----|   x4
D|-x------2------2-----|
A|-x------3------2-----|
E|-x------x------0-----|


Go Mr sunshine go go 
(go mr sunshine) 
your gonna rise up in the sky and say hello 
(rise up in the sky and say hello) 
the streets are like a fashion show 
(the streets are like a fashion show) 
so get outside cause its summer time donít you know?

Verse 2-

  X6	  x6     x6     x6     x6     x6     x6     x6
e|-4------4------4------4------4------4------2------0-----|
B|-4------5------4------5------4------5------2------0-----|
G|-4------6------4------6------4------6------2------1-----|  x2
D|-6------6------6------6------6------6------4------2-----|
A|-6------4------6------4------6------4------4------2-----|
E|-4------x------4------x------4------x------2------0-----|
[ Tab from: http://www.guitaretab.com/r/remi-nicole/94202.html ]
You know summer has kicked off 
when the boys have got there shirts off 
even the fat old men with the hairy chests 
when keeping them on would be best 

So girls walk around with nothing on 
cause they know the sunshine wont last long 
so they really have to market themselves 
cause in the winter they'll be left on the shelf 

Chorus-

   X5    x5     x10
e|-2------0------0-----|
B|-3------1------0-----|
G|-2------0------1-----|   x4
D|-x------2------2-----|
A|-x------3------2-----|
E|-x------x------0-----|


Go Mr sunshine go go 
(go Mr sunshine) 
your gonna rise up in the sky and say hello 
(rise up in the sky and say hello) 
the streets are like a fashion show 
(the streets are like a fashion show) 
so get outside cause its summer time donít you know?

The ďgo goĒ bit-

  X6	  x6     x6     x6     x6     x6     x6     x6
e|-4------4------4------4------4------4------2------0-----|
B|-4------5------4------5------4------5------2------0-----|
G|-4------6------4------6------4------6------2------1-----|  x1
D|-6------6------6------6------6------6------4------2-----|
A|-6------4------6------4------6------4------4------2-----|
E|-4------x------4------x------4------x------2------0-----|

Chorus-

   X5    x5     x10
e|-2------0------0-----|
B|-3------1------0-----|
G|-2------0------1-----|   x4
D|-x------2------2-----|
A|-x------3------2-----|
E|-x------x------0-----|


Go Mr sunshine go go 
(go Mr sunshine) 
your gonna rise up in the sky and say hello 
(rise up in the sky and say hello) 
the streets are like a fashion show 
(the streets are like a fashion show) 
so get outside cause its summer time donít you know?



| /  slide up
| \  slide down
| h  hammer-on
| p  pull-off
| ~  vibrato
| +  harmonic
| x  Mute note
==============================================================
Related for Go Mr Sunshine tab