Song name
# A B C D E F G H I J K L M N O P Q R S T U V W X Y Z

Reminition - Is She Goin Out With Him tab

Help us improve GuitareTab! Take a short survey!
Song:is she goin out with him
Artist: Reminition
email: reminition@hotmail.com

Introduction

e|-----------------------------------------------|
b|-----------------------------------------------|
g|-------13----------11---------9---------11-----|
d|----13----13----11----11----9---9----11----11--|
a|--11----------9-----------7--------9-----------|
e|-----------------------------------------------|

verse

e|-----------------------------------------------|
b|-----------------------------------------------|
g|---88888888---44444444---66666666--------------|
d|---88888888---44444444---66666666---77777777---|
a|---66666666---22222222---44444444---77777777---|
e|------------------------------------55555555---|

chorus

e|-----------------------------|
b|-----------------------------|
g|---88888888----4444---6666---|
d|---88888888----4444---6666---|
a|---66666666----2222---4444---|
e|-----------------------------|

Interlude

e|---------------------------------------------------------|
b|---------------------------------------------------------|
g|---13-13-13---x-x-x-x---11-11--9-9-9---x-x-x-x---11-11---|
d|---13-13-13---x-x-x-x---11-11--9-9-9---x-x-x-x---11-11---|
a|---11-11-11---x-x-x-x---9--9---7-7-7---x-x-x-x---9--9----|
e|---------------------------------------------------------|

intro x4
verse x2
chorus x2
verse x2
chorus x2
verse x2
chorus x2
inter x4
chorus x4
Related for Is She Goin Out With Him tab