Guitaretab - guitar tabs
Song name
# A B C D E F G H I J K L M N O P Q R S T U V W X Y Z

Reminition - I Can Fly tab

song: I can fly
artist: reminition
email: reminition@hotmail.com

intro

e|------------------------------------------|
b|------------------------------------------|
g|--7---7-7---------------------------------|
d|--7---7-7---7---7-7---9---9-9---5---5-5---|
a|--5---5-5---7---7-7---9---9-9---5---5-5---|
e|------------5---5-5---7---7-7---3---3-3---|

verse
[ Tab from: http://www.guitaretab.com/r/reminition/43497.html ]
e|---------------------------------------------|
b|---------------------------------------------|
g|---7-7-7-7-----------------------------------|
d|---7-7-7-7---7-7-7-7---9-9-9-9---5-5-5-5-----|
a|---5-5-5-5---7-7-7-7---9-9-9-9---5-5-5-5-----|
e|-------------5-5-5-5---7-7-7-7---3-3-3-3-----|
p.m.-------------------------------------------|

chorus

e|-----------------------------------------------------------|
b|-----------------------------------------------------------|
g|--777777-777777--------------------------------------------|
d|--777777-777777-777777-777777-999999-999999-555555-555555--|
a|--555555-555555-777777-777777-999999-999999-555555-555555--|
e|----------------555555-555555-777777-777777-333333-333333--|

intro x2
chorus x2
verse x4
chorus x2
verse x4
chorus x2
verse x4
chorus x2
inter x2
chorus x4
Related for I Can Fly tab
I Can Fly chords by Reminition