Song name
# A B C D E F G H I J K L M N O P Q R S T U V W X Y Z

Reminition - Whats Gonna Happen tab

Help us improve GuitareTab! Take a short survey!
song: whats gonna happen
artist: reminition
e-mail: reminition@hotmail.com

Intro/Inter

e|---------------------------------------------------------------|
b|---------------------------------------------------------------|
g|---------------------------------------------------------------|
d|------9-----9--------------------11-----11---------------------|
a|--7-7---7-7---------9-----9--9-9----9-9-----------13-------13--|
e|---------------7-7----7-7-------------------11-11----11-11-----|

Verse

e|----------------------------------------------|
b|----------------------------------------------|
g|--9-9-9-9-----------11-11-11-11---------------|
d|--9-9-9-9--9-9-9-9--11-11-11-11--13-13-13-13--|
a|--7-7-7-7--9-9-9-9---9--9--9--9--11-11-11-11--|
e|-----------7-7-7-7---------------11-11-11-11--|

Chorus

e|----------------------------------------------|
b|----------------------------------------------|
g|--9-9-9-9-----------11-11-11-11---------------|
d|--9-9-9-9--9-9-9-9--11-11-11-11--13-13-13-13--|
a|--7-7-7-7--9-9-9-9---9--9--9--9--13-13-13-13--|
e|-----------7-7-7-7---------------11-11-11-11--|

Intro x2
Verse x4
Chorus x4
Verse x4
Chorus x4
Verse x4
Chorus x4
Inter x2
Chorus x8
Related for Whats Gonna Happen tab