Song name
# A B C D E F G H I J K L M N O P Q R S T U V W X Y Z

Reminition - You Never Say Once Again tab

song: you never say/once again
artist: reminition
e-mail: reminition@hotmail.com

Intro/Chorus

e|----------------------------------------------|
b|----------------------------------------------|
g|--11-11-11-11------------------------9-9-9-9--|
d|--11-11-11-11--11-11-11-11--9-9-9-9--9-9-9-9--|
a|---9--9--9--9--11-11-11-11--9-9-9-9--7-7-7-7--|
e|----------------9--9--9--9--7-7-7-7-----------|

Verse

e|--------------------------------------|
b|--------------------------------------|
g|--4-4-4-4-----------6-6-6-6-----------|
d|--4-4-4-4--4-4-4-4--6-6-6-6--6-6-6-6--|
a|--2-2-2-2--4-4-4-4--4-4-4-4--6-6-6-6--|
e|-----------2-2-2-2-----------4-4-4-4--|

Interlude

e|------------------------|
b|------------------------|
g|----4--------------6----|
d|----4----4----6----6----|
a|----2----4----6----4----|
e|---------2----4---------|

Intro/Chorus x 4
Verse x4
Chorus x4
Verse x4
Chorus x4
Verse x4
Chorus x4
Verse x4
Chorus x4
Verse x4
Chorus x8
Tap to rate this tab
 
# A B C D E F G H I J K L M N O P Q R S T U V W X Y Z