Song name
# A B C D E F G H I J K L M N O P Q R S T U V W X Y Z

Reminition - Skate Park Anthem tab

song: skate park anthem
artist: reminition
e-mail: reminition@hotmail.com

Introduction

e|-----------------------------------|
b|-----------------------------------|
g|----9------------------------------|
d|---9-9------9--------11--------9---|
a|--7--------9-9-----11--11-----9-9--|
e|----------7-------9----------7-----|

Verse

e|------------------------------------------------------|
b|------------------------------------------------------|
g|--9-9-9-9------------------------------------9-9-9-9--|
d|--9-9-9-9--9-9-9-9--11-11-11-11-11-11-11-11--9-9-9-9--|
a|--7-7-7-7--9-9-9-9--11-11-11-11-11-11-11-11--7-7-7-7--|
e|-----------7-7-7-7---9--9--9--9--9--9--9--9-----------|

Chorus

e|---------------------------------------------------------------------|
b|---------------------------------------------------------------------|
g|--9-9-9-9------------------------------------------9-9-9-9-----------|
d|--9-9-9-9--9-9-9-9--11-11-11-11--9-9-9-9--7-7-7-7--9-9-9-9--9-9-9-9--|
a|--7-7-7-7--9-9-9-9--11-11-11-11--9-9-9-9--7-7-7-7--7-7-7-7--9-9-9-9--|
e|-----------7-7-7-7---9--9--9--9--7-7-7-7--5-5-5-5-----------7-7-7-7--|

e|---------------------------------------------------------------------|
b|---------------------------------------------------------------------|
g|--------------------9-9-9-9------------------------------------------|
d|--7-7-7-7--9-9-9-9--9-9-9-9--9-9-9-9--11-11-11-11--9-9-9-9--7-7-7-7--|
a|--7-7-7-7--9-9-9-9--7-7-7-7--9-9-9-9--11-11-11-11--9-9-9-9--7-7-7-7--|
e|--5-5-5-5--7-7-7-7-----------7-7-7-7---9--9--9--9--7-7-7-7--5-5-5-5--|

e|----------------------------|
b|----------------------------|
g|--9-9-9-9-------------------|
d|--9-9-9-9--9-9-9-9-9-9-9-9--|
a|--7-7-7-7--9-9-9-9-9-9-9-9--|
e|-----------7-7-7-7-7-7-7-7--|

Intro x4
Verse x2
Chorus x2
Verse x2
Chorus x2
Verse x2
Chorus x2
Verse x2
Chorus x4
Tap to rate this tab
# A B C D E F G H I J K L M N O P Q R S T U V W X Y Z