Song name
# A B C D E F G H I J K L M N O P Q R S T U V W X Y Z

Remy Zero - Shattered tab

Song: Shattered
Artist: Remy Zero
Album: Suicide Kings Original Soundtrack; Crazy, Beautiful Original Soundtrack
Tuning: Standard (EADGBe)
Capo: 4th Fret.
Notes: This is a revision to the tabs submitted by Rob Marston. I'm just trying
to make this seem slightly less confusing. In fact this is his exact tab just I
changed the numberings so it matches up with the Capo. (0= Capo marked fret.
2= 2 frets in front of the capo). Also, I'm not sure how accurate this is, I just
found it and want to correct it before I try it out and attempt to fix everything
in full. Cheers!



Intro/Verse:

E-|---------|-----------------------|
B-|---------|-------2h3p2-----------| X 2
G-|---2/4---|---2h4-------4p2-2/4---|
D-|---------|-----------------------|
A-|---0-----|---0-----0---0---0-----|
E-|---------|-----------------------|

Verse:

E-|---------|-------------------------|-----------------------|-----------|
B-|---------|-------2h3p2---------0---|-------2h3p2-----------|---3-2-----|
G-|---2/4---|---2h4-------4p2-2/4-----|---2h4-------4p2-2/4---|-------4---|
D-|---------|-------------------------|-----------------------|-----------|
A-|---0-----|---0-----0---0---0-------|---0-----0---0---0-----|---0-0-0---|
E-|---------|-------------------------|-----------------------|-----------|

I'm not sure about this part...

E-|---------------|-------------------------------|
B-|---------------|---------2-----------2---------|
G-|-------2-------|-------2---2-------2---2---2---|
D-|-----------0---|-----2-----------2-------2-----|
A-|---2-----------|---0-----------0---------------|
E-|---3-----------|-------------------------------|


*Reading Tabs:
 ________________
||/| Slide into  |
||h| Hammer On   |
||p| Pull Off    |
||b| Bend        |
|________________|
Tap to rate this tab
# A B C D E F G H I J K L M N O P Q R S T U V W X Y Z