Guitaretab - guitar tabs
Song name
# A B C D E F G H I J K L M N O P Q R S T U V W X Y Z

Remy Zero - Glorious tab

this is my first tab ever.
Standard E tuning

intro/verse
---------------------------------------------|
--------------------5-5----------------------|
5------5-5h7p5--5/7-8-8-7-5------------------|
5h77-7--7-----7------------------------------|
---------------------------------------------|
---------------------------------------------|

---------------------------------------------|
--------------8-8-8-10-----------------------|
--5-5h7p5--5/9-9-----------------------------|
77-7-----7-----------------------------------|
---------------------------------------------|
---------------------------------------------|

PLay first section again
then play:

---------------------------------------------|
---------------------------------------------|
--5-5h7p5-5h8p5-5h8p5------------------------|
77-7-----7-----7-----7\----------------------|
---------------------------------------------|
---------------------------------------------|
Gt. 1                 Gt.2
---------------------|-----------------------|
---------------------|-----------------------|
---------------------|-----------------------|
33333333-66666666----|xx7x7x77--xx10x10------|
33333333-66666666----|xx7x7x77--xx10x10~-----|
11111111-44444444----|xx5x5x55--xx-8x-8------|

PLay all that 3 times but on third time don't play the last part.
[ Tab from: http://www.guitaretab.com/r/remy-zero/132730.html ]
Chorus x3
------------------------------------|11b(13-13-13-13-13)14b(16-16-16--|
------------------------------------|---------------------------------|
---------55555555-------------------|---------------------------------|
33333333-33333333-66666666-77777777-|---------------------------------|
33333333-33333333-66666666-77777777-|---------------------------------|
11111111----------44444444-55555555-|---------------------------------|

verse
chorus
Bridge/drum solo x2
--------------------------------------------|
--------------------------------------------|
--------------------------------------------|
7-7------6-6-----7-7----3-6-----------------|
7-7------6-6-----7-7----3-6-----------------|
5-5------4-4-----5-5----1-4-----------------|

solo x2(comes in on last two chords of drum solo part)bend all strings to get these notes
13-----16--1717171717171717-1616161616161616-1717171717171717-13131313-16--|
---------------------------------------------------------------------------|
---------------------------------------------------------------------------|
---------------------------------------------------------------------------|
---------------------------------------------------------------------------|
---------------------------------------------------------------------------|

Right before chorus
-------------------|
-------------------|
-------------------|
3-3----------------|
3-3----------------|
1-1----------------|

play chorus once more but repeat last line a few times.
thats it.
Related for Glorious tab
Glorious chords by Remy Zero