Song name
# A B C D E F G H I J K L M N O P Q R S T U V W X Y Z

Remy Zero - Life In Rain tab

Song: 		Life in Rain
Band: 		Remy Zero
Tabbed by:	Simon Engledew (s_engledew@hotmail.com)

This is the beginning of Life In Rain.. More to come as soon as I tab it.
I'm certain it is acurate in my head, but I may have missed out a few notes
due to absent minded-ness O_<.

E|------3-----3-----3------|
A|0------------------------|
D|-2---2-2---2-0---0-0---0-|
G|--2-2---2-2---0-0---0-0--|
B|---1-----1-----0-----0---|
E|-------------------------|

E|------3-----3-----3------|
A|0------------------------|
D|-2---2-2---2-0---0-0---0-|
G|--2-2---2-2---0-0---0-0--|
B|---1-----1-----0-----0---|
E|-------------------------|

E|------3-----3-----1------|
A|0------------------3---3-|
D|-2---2-2---2-0---0--3-3--|
G|--2-2---2-2---0-0----2---|
B|---1-----1-----0---------|
E|-------------------------|

E|------------------3-----3------|
A|3-----3--2--0------------------|
D|-2---2-2--0--2---2-0---0-0---0-|
G|--0-0---0--0--2-2---0-0---0-0--|
B|---1-----------1-----0-----0---|
E|-------------------------------|

E|------------------3-----3------|
A|3-----3--2--0------------------|
D|-2---2-2--0--2---2-0---0-0---0-|
G|--0-0---0--0--2-2---0-0---0-0--|
B|---1-----------1-----0-----0---|
E|-------------------------------|

E|----------------|
A|----------------|
D|----------------|
G|----------------|
B|-1-1-1---3------|
E|0-0-0-010-0 x10-|

E|------------|
A|------------|
D|------------|
G|------------|
B|-1-1-1---3--|
E|0-0-0-010-1-|


More to come >_0
Tap to rate this tab
 
# A B C D E F G H I J K L M N O P Q R S T U V W X Y Z