Song name
# A B C D E F G H I J K L M N O P Q R S T U V W X Y Z

Remy Zero - Fair tab

Help us improve GuitareTab! Take a short survey!
Title: Fair
Artist: Remy Zero
Album: Villa Elaine
Tunning: Standard

This one of my first tabs, trying not to steal work, but I took zulu4364's
chords and put them in power tabs, I thought it sounded better.  You
should deffinately check his out for where to change chords.

Intro
E|----------------------------------------------------------|
B|----------------------------------------------------------|
G|-7-77-777--4-44-444---7-77-777--4-44-444------------------|
D|-7-77-777--4-44-444---7-77-777--4-44-444------------------|
A|-5-55-555--2-22-222---5-55-555--2-22-222------------------|
e|----------------------------------------------------------|

Verse
E|----------------------------------------------------------|
B|----------------------------------------------------------|
G|-7-77-777--4-44-444---5-55-555----------------------------|
D|-7-77-777--4-44-444---5-55-555--5-55-555------------------|
A|-5-55-555--2-22-222---3-33-333--5-55-555------------------|
e|--------------------------------3-33-333------------------|

E|----------------------------------------------------------|
B|----------------------------------------------------------|
G|-7-77-777--4-44-444-------------2-22-222------------------|
D|-7-77-777--4-44-444---5-55-555--2-22-222------------------|
A|-5-55-555--2-22-222---5-55-555--0-00-000------------------|
e|----------------------3-33-333----------------------------|

E|----------------------------------------------------------|
B|----------------------------------------------------------|
G|-7-77-777-------------------------------------------------|
D|-7-77-777---4-5~--5555555555555---------------------------|
A|-5-55-555---4-5~--5555555555555---------------------------|
e|------------2-3~--3333333333333---------------------------|
                    (crescendo)

See zulu4364's chord version for the rest... 
err... can I say that?

Related for Fair tab