Song name
# A B C D E F G H I J K L M N O P Q R S T U V W X Y Z

Renaissance - I Think Of You tab

----------------------------------------------------------------------------
			    I Think of You - Renaissance
----------------------------------------------------------------------------
Tabbed by:Kingfish


You can figure out the strum pattern.
Play the first line once for intro, then the whole progression 3 times.
I added a few passing notes I like to play in the last 2 lines.  


    Gm         Dmaj7        Gm-ish        Dmaj7

e|--6-----------5-----------0-2-3-2-0-----2--------------------------------|
B|--8-----------7-----------3-------------2--------------------------------|
G|--7-----------6-----------3-------------2--------------------------------|
D|--0-----------0-----------0-------------0--------------------------------|
A|-------------------------------------------------------------------------|
E|-------------------------------------------------------------------------|



    Gm         Dmaj7        Em            A

e|--6-----------5-----------0-------------0--------------------------------|
B|--8-----------7-----------0-------------2--------------------------------|
G|--7-----------6-----------0-------------2--------------------------------|
D|--0-----------0-----------2-------------2--------------------------------|
A|--------------------------2-------------0--------------------------------|
E|--------------------------0----------------------------------------------|


    D           D7          G            Gm

e|--2--5--------5----7--5---3------------3---------------------------------|
B|--3-----------7-----------3------------3---------------------------------|
G|--2-----------5-----------4------------3---------------------------------|
D|--0-----------0-----------5------------5---------------------------------|
A|-------------------------------------------------------------------------|
E|-------------------------------------------------------------------------|


    Dm          E           G6           D         Gm-ish

e|--1----3--1---0-----------0------------2---------0-2-3-2-0---------------|
B|--3-----------0-----------0-----0--3---3---------3-----------------------|
G|--2-----------1-----------0------------2---------3-----------------------|
D|--0-----------2-----------0------------0---------0-----------------------|
A|--------------2-----------2----------------------------------------------|
E|--------------0-----------3----------------------------------------------|
Tap to rate this tab
 
# A B C D E F G H I J K L M N O P Q R S T U V W X Y Z