Guitaretab - guitar tabs
Song name
# A B C D E F G H I J K L M N O P Q R S T U V W X Y Z

Renaissance - Tanz tab

-------------------------------------------------------------------------------
			TANZ  Georg Fuhrmann
-------------------------------------------------------------------------------
Tabbed by: Karl Schmaltz
Email: (karl_schmaltz@hotmail.com)

Tuning: 6th To D
[ Tab from: http://www.guitaretab.com/r/renaissance/86199.html ]
E|------------------------0-2--5-----2-----5-----2---------------------------|
B|-3---2--0------3------3------------------------------3-----2-----0---2-----|
G|------------2--------------------------------------------------------------|
D|-----0------0------0------0------0-----0-----0-----0-----0-----0-----0-----|
A|---0------0------0------0------0-----0-----0-----0-----0-----0-----0-------|
E|-0------0------0------0------0-----0-----0-----0-----0-----0-----0---------|


E|-----0--2------5---3--2---0------------------0-2---0-------------5---3-----|
B|-3---------------------------3---2-0-----3-----------3-----3---------------|
G|---------------------------------------2-----------------------------------|
D|-----0------0------0------0------0-----0-----0-----0-----0-----0-----0-----|
A|---0------0------0------0------0-----0-----0-----0-----0-----0-----0-------|
E|-0------0------0------0------0-----0-----0-----0-----0-----0-----0---------|

E|-2---0------------------|
B|--------3------3--------|
G|------------------------|
D|-----0------0------0----|
A|---0------0------0------|
E|-0------0------0--------|

===============================================================================

Related for Tanz tab