Song name
# A B C D E F G H I J K L M N O P Q R S T U V W X Y Z

Renan Luce - Les Voisines tab

Les voisines de Renan Luce


Guitare principale : Seulement des croches, étoufées sur le deuxième temps

Capo en 4

Rythme 1 :

Am                     F

E|--------   --------  --------  --------|
B|-----1--   -----0--  -----1--  -----0--|
G|-----2--   -----2--  -----2--  -----2--|
D|-------- X2--------X2--------X2--------|X2
A|--0-----   --0-----  --3-----  --3-----|
E|--------   --------  --------  --------|


Rythme 2 :

  G          E         Am        Dm        E         Am

E|--------   --------  --------  --------  --------  --------|
B|-----0--   -----0--  -----1--  -----3--  -----0--  -----1--|
G|-----0--   -----1--  -----2--  -----2--  -----1--  -----2--|
D|-------- X4--------X4--------X4--------X4--------X8--------|
A|--2-----   --2-----  --0-----  --0-----  --2-----  --0-----|
E|--------   --------  --------  --------  --------  --------|


Vous l'avez compris, la main droite ne bouge pas.



Guitare 2 :

Avec capo en 4

E|-----0----------------1-----------|
B|--1-----1--3--1----1-----1--3--1--|
G|----------------------------------|
D|----------------------------------|
A|----------------------------------|
E|----------------------------------|



Solo :

Sans capo

E|-------------------------------------------------------------------------|
B|--------------------------------------4-5-4----------------9-10-9--------|
G|--/16--11-8--4--/13--8--5--1----6-5-6------x2-6---11-10-11-------x2-11---|
D|-------------------------------------------------------------------------|
A|-------------------------------------------------------------------------|
E|-------------------------------------------------------------------------|

E|------------------------------------------11-----------------------------|
B|--------7-9-7--------10----------------10----10----------------10--------|
G|--9-8-9------x2-9-------11----------11----------11----------11-----------|
D|---------------------------10----10----------------10----10--------------|
A|------------------------------12----------------------12-----------------|
E|-------------------------------------------------------------------------|

E|-------------------------------------------------------------------------|
B|--------4-5-4------------------9-10-9------------------------------------|
G|--6-5-6------x2-6-----11-10-11-------x2-11-------------------------------|
D|----------------------------------------------------------11-10-9-10-----|
A|----------------------------------------------12-11-10-11----------------|
E|-------------------------------------------------------------------------|

E|------------------------------------------------------17-16-15-16-x2-18--|
B|----------------------------14-13-12-13---17-16-15-16----------------18--|
G|--11-10-9-10-11-14-13-12-13----------------------------------------------|
D|-------------------------------------------------------------------------|
A|-------------------------------------------------------------------------|
E|-------------------------------------------------------------------------|





 Am x4
J'ai toujours préféré aux voisins les voisines
 F x4
Dont les ombres chinoises ondulent sur les volets
 Am x4                                                      (Rythme 1)
Je me suis inventé un amour pantomime
 F x4
Où glissent en or et noir tes bas sur tes mollets


 G x4
De ma fenêtre en face
 E x4
J'caresse le plexiglas
 Am x4
J'maudis les techniciens
 Dm x4
Dont les stores vénitiens                                  (Rythme 2)
 E x8
Découpent en tranches

La moindre pervenche
 Am
Déshabillée



J'ai toujours préféré aux voisins les voisines
                                                           (Voir Guitare 2)
J'ai toujours préféré aux voisins les voisines


 Am
J'ai toujours préféré aux voisins les voisines
 F
Qui sèchent leurs dentelles au vent sur les balcons
 Am
C'est un peu toi qui danse quand danse la mousseline
 F
Invité au grand bal de tes slips en coton

 G
De ma fenêtre en face
 E
J'caresse le plexiglas
 Am
Je maudis les méninges
 Dm
Inventeurs du sèche-linge
 E
Plus de lèche-vitrine

A ces cache-poitrines
 Am
Que tu séchais


J'ai toujours préféré aux voisins les voisines
                                                           (Voir Guitare 2)
J'ai toujours préféré aux voisins les voisines


 Am
J'ai toujours préféré aux voisins les voisines
 F
Qui vident leurs armoires en quête d'une décision
 Am
Dans une heure environ, tu choisiras le jean
 F
Tu l'enfil'ras bien sûr dans mon champ de vision


 G
De ma fenêtre en face
 E
J'caresse le plexiglas
 Am
Concurrence déloyale
 Dm
De ton chauffage central
 E
Une buée dense

Interrompt ma transe
 Am
Puis des épais rideaux
 Dm
Et c'est la goutte d'eau
 C
Un raval'ment d'façade
 E
Me cache ta palissade
 Am
Une maison de retraite
 Dm
Construite devant ma f'nêtre
 C
Sur un fil par centaines
 E
Sèchent d'immenses gaines


J'ai toujours préféré aux voisins les voisines      x6
Tap to rate this tab
# A B C D E F G H I J K L M N O P Q R S T U V W X Y Z