Song name
# A B C D E F G H I J K L M N O P Q R S T U V W X Y Z

Renato Carosone - Mambo Italiano tab

 
              Renato Carasone's hit "Mambo Italiano"

  http://www.renatocarosone.it/

I don't have it all down yet. I''l update it later
 
http://www.youtube.com/watch?v=jfEVoklMBx0



e|---------------------------------------------------------------------------|
B|---------------------------------------------------------------------------|
G|---------------------------------------------------------------------------|
D|--7--7--7------------------------1--2--1--2--------------------------------|
A|--7--7--7---7--7--7---9---7---2--1--2--1--2--------------------------------|
E|------------7--7--7---9---7---2--------------------------------------------|

   Chi ha avuto avuto...                                  ....Napoli paisa.

(00:08)

  

e|--12-12-12-12-12-12-12-12-8-8-8-8-8-8-8-8-11-11-11-11-11-11-11-11----------|
B|---------------------------------------------------------------------------|
G|---------------------------------------------------------------------------|
D|---------------------------------------------------------------------------|
A|---------------------------------------------------------------------------|
E|---------------------------------------------------------------------------|

    E ritornato a....                                   ...dieci anni

(00:12)

e|--12-12-12-12-12-12-12-12--12-12-12-12-10-10-10-10-8-8-8-8-8-8-8-8-12-12-12-12-12-12-12-12-|
B|---------------------------------------------------------------------------|
G|---------------------------------------------------------------------------|
D|---------------------------------------------------------------------------|
A|---------------------------------------------------------------------------|
E|---------------------------------------------------------------------------|

     a broocklin...                                   ....ballando el mambo

(00:17)

(When he says "all'italiano hey!" you hit the guitar to substitue the drum)




      HEY MAMBO! MAMBO ITALIANO! HEY MAMBO! MAMBO ITALIANO!

e|--12-------------------------------12--------------------------------------|
B|------12-12--10-10-10-10-12-13-10------12-12--10-10-10-10-12-13-10---------|
G|---------------------------------------------------------------------------|
D|---------------------------------------------------------------------------|
A|---------------------------------------------------------------------------|
E|---------------------------------------------------------------------------|

 GO, GO, GO YOU MIXED UP SICILIANO

e|--12-----------------------------------------------------------------------|
B|------12-12--10-10-10-10-12-13-10------------------------------------------|
G|---------------------------------------------------------------------------|
D|---------------------------------------------------------------------------|
A|---------------------------------------------------------------------------|
E|---------------------------------------------------------------------------|
 
   All you calabrese-a do the mambo like a crazy with a

e|--0---0---0---0---0---0---0---0--------------------------------------------|
B|----5---5---5---5---5---5---5----------------------------------------------|
G|---------------------------------------------------------------------------|
D|---------------------------------------------------------------------------|
A|---------------------------------------------------------------------------|
E|---------------------------------------------------------------------------|

   Hey mambo, don't wanna tarantella. Hey mambo, no more-a mozzarella

e|--12-------------------------------12--------------------------------------|
B|------12-12--10-10-10-10-12-13-10------12-12--10-10-10-10-12-13-10---------|
G|---------------------------------------------------------------------------|
D|---------------------------------------------------------------------------|
A|---------------------------------------------------------------------------|
E|---------------------------------------------------------------------------|

   Hey mambo, mambo italiano 

e|--12-----------------------------------------------------------------------|
B|------12-12--10-10-10-10-12-13-10------------------------------------------|
G|---------------------------------------------------------------------------|
D|---------------------------------------------------------------------------|
A|---------------------------------------------------------------------------|
E|---------------------------------------------------------------------------|

   Try an isalata with da fish a baccala and then

e|--0---0---0---0---0---0---0---0--------------------------------------------|
B|----5---5---5---5---5---5---5----------------------------------------------|
G|---------------------------------------------------------------------------|
D|---------------------------------------------------------------------------|
A|---------------------------------------------------------------------------|
E|---------------------------------------------------------------------------|

(00:41)

e|--(play fret 16 twenty-four times fast then fret 17 nine times)------------|
B|---------------------------------------------------------------------------|
G|---------------------------------------------------------------------------|
D|---------------------------------------------------------------------------|
A|---------------------------------------------------------------------------|
E|---------------------------------------------------------------------------|

Tap to rate this tab
# A B C D E F G H I J K L M N O P Q R S T U V W X Y Z