Renato Russo - Mais Uma Vez tab

Music: Mais Uma Vez
Singer: Renato Russo
Album: Presente
Composer: Flavio Venturini/Renato Russo
Year: 1987
Tuning: Standard + Capo on the 1st fret

YouTube link: http://www.youtube.com/watch?v=bFtvXWT5cKo

>> Capo on the 1st fret << 
Tip: If you don't have a capo, try making a homemade one by using rubber band and a pencil.
It works just fine. =)

Verses (take a little break at the bars)
e|-----0---|---0-----0-------|---------0-----0---------|-------|
A|-------0-|-----0-----0-----|-------0---0---0(strumm)-|-0-----|
D|---------|-------2-----2---|-----2-------0-2---------|---2-1-|
G|---2-----|---------------2-|---2---------------------|-------|
B|-0-------|-2---------------|-0-----------------------|-------|
E|---------|-----------------|-------------------------|-------|

Chorus
e|-----0-----0---------0-----0---------0-----0---------0-----0-----|
A|-----------------------------------------------------------------|
D|-----------------------------------2-----2-----2---2-----2-----2-| _
G|---2-----2-----2---2-----2-----2---------------------------------|  |
B|-0-----0-----0---0-----0-----0---5-----5-----5---5-----5-----5---|  |
E|-----------------------------------------------------------------|  |
                                                                      |
e|-----0-----0---------0-------0---|                                  |
A|---------------------------------|                                  |
D|---2-----2-----2---2---2---2---2-|                                 _|
G|-0-----0-----0-----------2-------|
B|-----------------2---------------|
E|---------------------------------|

In case you may find the chorus part a little confusing like I do, I wrote the 
finger positions below:

e|-0-|-0-|-0-|-0-|-0-|
A|---|---|---|---|---|
D|---|-2-|-2-|-2-|-2-|
G|-2-|---|-0-|---|-2-|
B|-0-|-5-|---|-2-|---|
E|---|---|---|---|---|

That's it. Any help completing or correcting the tab will be welcome and rightfully credited.
Tap to rate this tab
 
# A B C D E F G H I J K L M N O P Q R S T U V W X Y Z