Guitaretab - guitar tabs
Song name
# A B C D E F G H I J K L M N O P Q R S T U V W X Y Z

Renaud - Mistral Gagnant tab

Renaud - Mistral Gagnant

Here is the TAB version of my latest arrangement, you can also find a guitar pro version 
available on this site.


Capo on 5th fret.

                            ^
E |----------------------|--0-----0-------------|----------------------|
B |----------------------|--0-----------3-------|----------------------|
G |-----------------0----|--0--------0-----0----|--2-----2--------2----|
D |--------------2-------|-----2--------2-------|-----2-----2--4-------|
A |----------------------|----------------------|--0-------------------|
E |----------------------|--0-------------------|----------------------|

  ^                                             ^
--2-----2-----3-------|--2-----0-------------|--3-----3-----5-------|
--3-----3-------------|-----------------0----|--0-------------------|
--2--2-----2-----2----|-----0--------0-------|--0--------0-----0----|
--0-----------0-------|-----------2----------|-----2----------------|
----------------------|--3-------------------|----------------------|
----------------------|----------------------|--0-----------0-------|

                         ^                      ^
----------------------|--2-----2-------------|--0-----------0-------||
--1--------------1----|--0-----------4-------|--0--------0----------||
--------2-----2-------|--2--------2-----2----|--0-----0-------------||
-----2-----2----------|-----1--------1-------|-----2----------------||
--0-----------0-------|--2-------------------|----------------------||
----------------------|----------------------|--0-------------------||

          ^                               ^
---------------------|----------------------------------------|
----------0-----0----|--0-----------0--0--0-------------------|
o---------0--0-------|--0-----------------0-----2h----0-------|
o---2--2-------------|--------2-------------------------------|
---------------------|----------------------------------------|
-0--------0----------|--0-----------------0-------------------|

                    ^                               ^
----------------------------------------|----------------------|
--0-----------0--0--0-----0-----0-------|--0--1--3--1----------|
--0-----------------0-------------------|--0--------2-----2----|
--------2-------------------------------|--------------2-------|
----------------------------------------|-----------0----------|
--0-----------------0-------------------|--0-------------------|

                                           ^
----------------------|----------------------------------------|
--1-------------------|----------------------------------------|
-----2----------------|--2-----------2-----2-----------2--2----|
--------------0--0----|--0-----0-----------0-----0-------------|
----------------------|----------------------------------------|
--------3--2----------|----------------------------------------|

                    ^                               ^
----------------------------------------|----------------------|
----------------------------------------|--------------0--1----|
--2-----0-----------2-----------2--2----|--2--2--2--2----------|
--0-----------4-----0-----0-------------|----------------------|
----------------------------------------|----------------------|
----------------------------------------|--2--------2----------|

                                  ^
----------------------|----------------------|
--0--------0----------|-----------0-----0----|
--------0-----0-------|-----------0--0-------|
-----0----------------|-----2--2-------------|
----------------------|----------------------|
--3--------------2----|--0--------0----------|

                    ^
----------------------------------------|
--0-----------0--0--0-------------------|
--0-----------------0-----2h----0-------|
--------2-------------------------------|
----------------------------------------|
--0-----------------0-------------------|

                    ^                               ^
----------------------------------------|----------------------|
--0-----------0--0--0-----0-----0-------|--0--1--3--1----------|
--0-----------------0-------------------|--0--------2-----2----|
--------2-------------------------------|--------------2-------|
----------------------------------------|-----------0----------|
--0-----------------0-------------------|--0-------------------|

                                           ^
----------------------|----------------------------------------|
--1-------------------|----------------------------------------|
-----2----------------|--2-----------2-----2-----------2--2----|
--------------0--0----|--0-----0-----------0-----0-------------|
----------------------|----------------------------------------|
--------3--2----------|----------------------------------------|
[ Tab from: http://www.guitaretab.com/r/renaud/324197.html ]
                    ^                               ^
----------------------------------------|----------------------|
----------------------------------------|--------------0--1----|
--2-----0-----------2-----------2--2----|--2--2--2--2----------|
--------------4-----0-----0-------------|----------------------|
----------------------------------------|----------------------|
--2-----------------2-------------------|--2--------2----------|

                                  ^
----------------------|-----------3--3--3----|
--0--------0----------|-----------1----------|
--------0-----0-------|--------0--0----------|
-----0-----------0----|-----2-----2----------|
----------------------|--3-------------------|
--3-------------------|----------------------|


--3-----------------3-----3-----3-------|
--------------1-------------------------|
-----------0----------------------------|
--------2-------------------------------|
----------------------------------------|
----------------------------------------|

  ^
--2-----------------2-----3-----5-------|--3-------------------|
--0-----------0-------------------------|-----------0----------|
--2--------2----------------------------|--------0-----0-------|
--------1-------------------------------|-----2-----------2----|
--2-------------------------------------|----------------------|
----------------------------------------|--0-------------------|

           ^
-----------3--3--3----|--3-----------------3-----3-----3-------|
-----------1----------|--------------1-------------------------|
--------0--0----------|-----------0----------------------------|
-----2-----2----------|--------2-------------------------------|
--3-------------------|----------------------------------------|
----------------------|----------------------------------------|

  ^
--2-----------------2-----3-----5-------|
--0-----------0-------------------------|
--2--------2----------------------------|
--------1-------------------------------|
--2-------------------------------------|
----------------------------------------|


--5s-7-----------------------------------0-------------------------------------|
-----------------------------0-----------------------0-------------------------|
-----------------0-----------------------------------------------0-------------|
-------------------------------------------------------------------------------|
-------------------------------------------------------------------------------|
-----0-------------------------------------------------------------------------|


-----------------2--2-----------2-------|--0-------------------|
--------------3-------------------------|-----------1----------|
-----------2----------------------------|--------0-----0-------|
--0-------------------------------------|-----2-----------2----|
----------------------------------------|--3-------------------|
----------------------------------------|----------------------|

                               ^
---------------------||--------2--2-----2-------|--0-----------0----------|
--3--------1---------||--------0----------------|-----------0-------------|
-----0--------0-----o||--------2----------------|--------0----------------|
--------2--------2--o||-----1-------------------|-----2-------------------|
--3--------3---------||--2-----------------2----|-------------------------|
---------------------||-------------------------|--0----------------------|

  ^
--------2--2-----2-------|--0-----------0----------||
--------0----------------|-----------0-------------||
--------2----------------|--------0----------------||
-----1-------------------|-----2-------------------||
--2-----------------2----|-------------------------||
-------------------------|--0----------------------||

If you liked my arrangement please rate it, don't be shy to leave a comment also. If you 
like my work you can also help me by donating to the following link http://tinyurl.com/ckajzfx

Donations help me a great deal. As single guitar finger picking becomes more popular, 
most arrangements are accessible only through paying membership or simply sold. I think 
music should be free, that's why I share my work with you on many different sites.

However for those of financial means who appreciate my work, a little donation once in a 
while goes a long way to encourage people like me to maintain that state of mind and 
continue working on new arrangements to share with everyone for free.

Thanks to who donated thus far.


Title: Mistral gagnant
SubTitle: (Lewt's Arrangement)
Artist: Renaud
Words: Renaud SÚchan
Music: Renaud SÚchan
Tempo = 90
Guitar

Legend
L - tied note
x - dead note
h - hammer on/pull off
b - bend
s - slide
~ - vibrato
g - ghost note
> - accentuated note
t - trill
M - palm mute
. - staccato
P - popping (bass)
S - slapping (bass)
+ - tapping
W - wide vibrato
< - fade in
w - whammy bar
= - tremolo picking
v - brush up
^ - brush down
V - pick stroke up
n - pick stroke down
Related for Mistral Gagnant tab