Song name
# A B C D E F G H I J K L M N O P Q R S T U V W X Y Z

Rene Aubry - Demi Lune tab

|-------------|-------------|-------------|-------------|
|----5---5----|----5---5----|--5---5---5--|----5---5----|
|--6---6---6--|--4---4---4--|----4---4----|--7---7---7--|
|-------------|-------------|0------------|-------------|
|0------------|4------------|-------------|-------------|
|-------------|-------------|-------------|0------------|

|-------------|-------------|-------------|--4---4---4--|
|----5---5----|----5---5----|--5---5---5--|----3---3----|
|--6---6---6--|--4---4---4--|----4---4----|-------------|
|-------------|-------------|0------------|-------------|
|0------------|4------------|-------------|-------------|
|-------------|-------------|-------------|0------------|

|----5---5----|----4---4----|----5---5----|----4---4----|
|-------------|-------------|--3---3---3--|-------------|
|--6---6---6--|--4---4---4--|-------------|--4---4---4--|
|-------------|-------------|0------------|2------------|
|0------------|4------------|-------------|-------------|
|-------------|-------------|-------------|-------------|

|-------------|-------------|----0---0----|----0---0----|
|----5---5----|----5---5----|--3---3---3--|--3---3---3--|
|--6---6---6--|--4---4---4--|-------------|-------------|
|-------------|-------------|-------------|-------------|
|0------------|-------------|-------------|-------------|
|-------------|3------------|1------------|0------------|

|0------------|
|3------------|
|-------------|
|-------------|
|-------------|
|0------------|
Tap to rate this tab
 
# A B C D E F G H I J K L M N O P Q R S T U V W X Y Z