Song name
# A B C D E F G H I J K L M N O P Q R S T U V W X Y Z

Renegades - Barking Dogs tab

Band: Renegades
Song: Barking Dogs
Album: Renegades EP

Heavy distortion all the way through

~ VERSE x2
E|-----------------------------------|
B|-----------------------------------|
G|-----------------------------------|
D|-7-----6-----5-----3-----0---------|
A|-7-x4--6-x4--5-x4--3-x4--0-x16-----|
d|-7-----6-----5-----3-----0---------|


~ PRE-CHORUS x2
E|-----------------------------|
B|-----------------------------|
G|-----------------------------|
D|-7-----6-----5-----3---------|
A|-7-x4--6-x4--5-x4--3-x4------|
d|-7-----6-----5-----3---------|


~ CHORUS x1
E|-----------------------------|
B|-----------------------------|
G|-----------------------------|
D|-8-----7-----8-----7---------|
A|-8-x4--7-x4--8-x4--7-x4------|
d|-8-----7-----8-----7---------|

E|-------------------------|
B|-------------------------|
G|-------------------------|
D|-8-----7-------3---------|
A|-8-x4--7-x4----3-x8------|
d|-8-----7-------3---------|

E|-----------------------------|
B|-----------------------------|
G|-----------------------------|
D|-8-----7-----8-----7---------|
A|-8-x4--7-x4--8-x4--7-x4------|
d|-8-----7-----8-----7---------|

E|-------------------------|
B|-------------------------|
G|---------------7---------|
D|-8-----7-------7-x8------|
A|-8-x4--7-x4----5---------|
d|-8-----7-----------------|


~ VERSE x 3
~ PRE-CHORUS x2
~ CHORUS x 1


~ BRIDGE x1
E|-----------------------------------------|
B|-----------------------------------------|
G|-----------------------------------------| x4
D|-----------------------------------------|
A|-----------------------------------------|
d|-12h0-11h0-10h0-15h0-12h0-11h0-10h0-15h0-|

E|--------|
B|--------|
G|-0------|
D|-0------|
A|-2-x32--|
d|-3------|

E|-----------------------------------------|
B|-----------------------------------------|
G|-----------------------------------------| x2
D|-----------------------------------------|
A|-----------------------------------------|
d|-12h0-11h0-10h0-15h0-12h0-11h0-10h0-15h0-|

E|--------|
B|--------|
G|-0------|
D|-0------|
A|-2-x32--|
d|-3------|

E|-----------------------------------------|
B|-----------------------------------------|
G|-----------------------------------------| x2
D|-----------------------------------------|
A|-----------------------------------------|
d|-12h0-11h0-10h0-15h0-12h0-11h0-10h0-15h0-|

~ PRE-CHORUS x4


~ FINAL CHORUS x1
E|------------------------------|
B|------------------------------|
G|------------------------------|
D|-8-----7-7---7-8-----7-7---7--|
A|-8-x4--7-7---7-8-x4--7-7---7--|
d|-8-----7-7---7-8-----7-7---7--|

E|-------------------------|
B|-------------------------|
G|-------------------------|
D|-8-----7-------3---------|
A|-8-x4--7-x4----3-x8------|
d|-8-----7-------3---------|

E|-----------------------------|
B|-----------------------------|
G|-----------------------------|
D|-8-----7-----8-----7---------|
A|-8-x4--7-x4--8-x4--7-x4------|
d|-8-----7-----8-----7---------|

E|-------------------------|
B|-------------------------|
G|---------------7---------|
D|-8-----7-------7-x8------|
A|-8-x4--7-x4----5---------|
d|-8-----7-----------------|

~ CHORUS x1
   Ending on:
E|-------------------------|
B|-------------------------|
G|---------------7-7-7\----|
D|-8-----7-------7-7-7\----|
A|-8-x4--7-x4----5-5-5\----|
d|-8-----7-----------------|
Tap to rate this tab
 
# A B C D E F G H I J K L M N O P Q R S T U V W X Y Z