Renegades - You Are My Everything tab

Intro :
|---------------------0-----|
|--2-----2-------2-3--------|
|--2-----2-------2-------2--|
|-----2-----2---------------|
|--0-------------0----------|
|---------------------------|

|---------------------0---|
|--0----0----0-2-3--------|
|-------------------------|
|-----2---2---------------|
|-------------------------|
|--4---------4------------|

|------------0----------|
|--0----0------2-3-0----|
|-------0---------------|
|-----0---0-------------|
|-----------------------|
|--3---------3----------|

Tab by : duff_bdg
Thanks to Bengkel Musik

|------------------0---|
|--0----0--------------|
|------------3---------|
|-----4---4-----4------|
|----------------------|
|--2---------2---------|

|-------------------------|
|--3-----3-----3--2-------|
|--4-----4-----4-----4--2-|
|-----4-----4-------------|
|--2-----------2----------|
|-------------------------|

|----------------------------------|
|---------------0------------------|
|--2-----2----2------1-----1-------|
|-----2-----2-----------2------2---|
|----------------------------------|
|--0-----------------0-------------|


====
|---------------------------------|
|--2-----2-------0-----0---2-3----|
|--2-----2------------------------|
|-----2-----2-------2-------------|
|--0------------------------------|
|----------------4----------------|

|--------------------------|
|--0-----0-----------3-----|
|--------0-----2-----2-----|
|-----0-----0-----0-----0--|
|--------------------------|
|--3-----------2-----------|

|--------------------------|
|--------1------0-----3----|
|--2-----2------------0----|
|-----3-----3------0-----0-|
|--------------------------|
|--1------------3----------|

|-------------------------------|
|--2-----2-----2-----2----------|
|--2-----2-----2-----2-----2----|
|-----2-----2-----2-----2-------|
|--0----------------------------|
|-------------------------------|

Tab by : duff_bdg
Thanks to Bengkel Musik
Tap to rate this tab
 
# A B C D E F G H I J K L M N O P Q R S T U V W X Y Z