Song name
# A B C D E F G H I J K L M N O P Q R S T U V W X Y Z

Renegades - Sentimental tab

Renegades - Sentimental

guitar tab by Clarfs

Tuning - Drop D!

e|-------------------------------|
B|-------------------------------|
G|---------------5-5-5-5---------|
D|-0-0-0-3-3-3-0-5-5-5-5-2-3-2-0-|
A|-0-0-0-3-3-3-0-3-3-3-3-2-3-2-0-|
D|-0-0-0-3-3-3-0---------2-3-2-0-| 

e|-------------------------------|
B|-------------------------------|
G|---------------5-5-5-5---------|
D|-0-0-0-3-3-3-0-5-5-5-5-2-3-2-0-|
A|-0-0-0-3-3-3-0-3-3-3-3-2-3-2-0-|
D|-0-0-0-3-3-3-0---------2-3-2-0-|

enjoy!
Tap to rate this tab
 
# A B C D E F G H I J K L M N O P Q R S T U V W X Y Z