Guitaretab - guitar tabs
Song name
# A B C D E F G H I J K L M N O P Q R S T U V W X Y Z

Reno Divorce - How Longs It Been tab

-------------------------------------------------------------------------------
			     How longs it been - Reno Divorce
-------------------------------------------------------------------------------
Tabbed by:
Email:

Tuning:

e|------------------------------------------------------------------------------|
B|------------------------------------------------------------------------------|
G|--15--11--15--15--15--13--10--8--6--------------------------------------------|
D|------------------------------------8--6--8--6--4--4--4--4--1-----------------|
A|---------------------------------------------------------------4--1--1--1-----|
E|---------------------------------------------------------------------------4--|
[ Tab from: http://www.guitaretab.com/r/reno-divorce/190492.html ]
e|---------------------------------------------------------------------------------------|
B|----------------------------------------------------------------14---------------------|
G|-----------------------------------------------------11--h13--b13---13-----------------|
D|---------------------------------------------9--h11------------------------------------|
A|---------2--1---------------h1-------9--h11--------------------------------------------|
E|---2--4--------4--2--2--h4------4-2----------------------------------------------------|

e|-----------------------------------------------------------------------------------|
B|-----------------------------------------------------------------------------------|
G|-----------------------------------------------------------------------------------|
D|-11--13--13------------------------------------------------------------------------|
A|-----------------------------------------------------------------------------------|
E|-----------------------------------------------------------------------------------|



I will figure out the last part and post it later

| /  slide up
| \  slide down
| h  hammer-on
| p  pull-off
| ~  vibrato
| +  harmonic
| x  Mute note
===============================================================================
How Longs It Been chords by Reno Divorce