Song name
# A B C D E F G H I J K L M N O P Q R S T U V W X Y Z

Renounced - Empty tab

RENOUNCED - EMPTY

https://www.facebook.com/renouncedhc

    e|---------------------|
    b|---------------------|
GTR G|--------9--10--10----|
1+2 D|--------9--9---9-----| x3
    A|--------7--7---7-----|
    D|-222222--------8-----|
       PMPMPM

    e|---------------------------|
    b|---------------------------|
GTR G|--------9--10--10----------|
1+2 D|--------9--9---9-----------| 
    A|--------7--7---7---1-1-1-1-|
    D|-222222--------8---1-1-1-1-|
       PMPMPM            P M P M

Repeat both again

    e|------------------------------|
    b|------------------------------|
GTR G|------------------------------|
1+2 D|-0----------------------------|
    A|-0-(Let ring)-----------------|
    D|-0----------------------------|

    e|---------------------|
    b|---------------------|
GTR G|---------------------|
 1  D|-------------------1-|
    A|-5h6p5-------------1-|
    D|-------5h6p5-6h7p6-1-|

    e|---------------------|
    b|---------------------|
GTR G|---------------------|
 2  D|-(0)-----------------|
    A|-(0)-----------------|
    D|-(0)-----------------|

    e|-------------------------------|
    b|-------------------------------|
GTR G|-------------------------------|
1+2 D|-----------------------------1-| x3
    A|-000-0-0-000-0-0-6-5---------1-|
    D|-000-0-0-000-0-0-----6-5-7-6-1-|
       P M P M P M P M

    e|--------------------------------|
    b|-----------------------------7--|
GTR G|-----------------------------10-|
 1  D|-----------------6-5------------|
    A|-000-0-0-000-0-0-----6-5-0-0----|
    D|-000-0-0-000-0-0---------0-0----|
       P M P M P M P M         P M

    e|-------------------------------|
    b|-------------------------------|
GTR G|-------------------------------|
 2  D|-----------------------------1-|
    A|-000-0-0-000-0-0-6-5---------1-|
    D|-000-0-0-000-0-0-----6-5-7-6-1-|
       P M P M P M P M

    e|-------------------------------|
    b|-------------------------------|
GTR G|-------------------------------|
1+2 D|-----------------------------1-| x3
    A|-000-0-0-000-0-0-6-5---------1-|
    D|-000-0-0-000-0-0-----6-5-7-6-1-|
       P M P M P M P M

    e|-------------------------------------|
    b|-------------------------------------|
GTR G|-------------------------------------|
 1  D|-----------------------------------1-|
    A|-000-0-0-000-0-0-5h6p5-------------1-|
    D|-000-0-0-000-0-0-------5h6p5-6h7p6-1-|
       P M P M P M P M

    e|-------------------------------|
    b|-------------------------------|
GTR G|-------------------------------|
 2  D|-----------------------------1-| 
    A|-000-0-0-000-0-0-6-5---------1-|
    D|-000-0-0-000-0-0-----6-5-7-6-1-|
       P M P M P M P M

    e|------------------------------------|
    b|------------------------------------|
GTR G|------------------------------------|
1+2 D|------------------------2(PH)-------| x8
    A|-0-0------------0-2-1-0-------3-2-1-|
    D|-0-0---00000000-0-2-1-0-------3-2-1-|
       P M   PMPMPMPM P M P M       P MPM

    e|-------------------------------------------------------------|
    b|-------------------------------------------------------------|
GTR G|-------------------------------------------------------------|
1+2 D|-6--------------3-----6-5-----2-----2-----2-----2-----2----2-| x4
    A|-6--666-666-666-3-3-3-----6---2-222-2-222-2-222-2-222-2-22-2-|
    D|-6--666-666-666-3-3-3-------6-2-222-2-222-2-222-2-222-2-22-2-|
          P M P M P M   P M           P M   P M   P M   P M   PM

    e|------------------------------------|
    b|------------------------------------|
GTR G|------------------------------------|
1+2 D|------------------------2(PH)-------| x4
    A|-0-0------------0-2-1-0-------3-2-1-|
    D|-0-0---00000000-0-2-1-0-------3-2-1-|
       P M   PMPMPMPM P M P M       P MPM

    e|------------------------------------------------------------|
    b|------------------------------------------------------------|
GTR G|------------------------------------------------------------|
1+2 D|-6--------------3-----6-5-----2-----2-----2-----2-----2---2-| x4
    A|-6--666-666-666-3-3-3-----6---2-2-2-2-2-2-2-2-2-2-2-2-2-2-2-|
    D|-6--666-666-666-3-3-3-------6-2-2-2-2-2-2-2-2-2-2-2-2-2-2-2-|
          P M P M P M   P M           P M   P M   P M   P M   PM

    e|------------------------------------------|
    b|------------------------------------------|
GTR G|------------------------------------------|
 1  D|-9-10-9-10-12-10-9-10-----9---------9-----|
    A|-7----------------------------------------|
    D|----------------------10-----10-12-----12-|

    e|------------------------------------------|
    b|------------------------------------------|
GTR G|------------------------------------------|
 2  D|-2----------------------------------------|
    A|-2-(Let ring)-----------------------------|
    D|-2----------------------------------------|

    e|---------------------------------------|
    b|---------------------------------------|
GTR G|---------------------------------------|
 1  D|-9-10-9-10-12-10-9-10-5--5--5--7--7--7-|
    A|-7--------------------3--3--3--5--5--5-|
    D|---------------------------------------|

    e|---------------------------------------|
    b|---------------------------------------|
GTR G|---------------------------------------|
 2  D|-2-------------------------------------|
    A|-2-(Let ring)--------------------------|
    D|-2-------------------------------------|

Repeat last 2 bars x2

    e|-------------------------------------------------|
    b|-12-------13----12----15----13-------15-13-12h13-|
GTR G|-------------------------------------------------|
 1  D|----14-14----14----14----14----14-14-------------|
    A|-------------------------------------------------|
    D|-------------------------------------------------|
          PM PM    PM    PM    PM    PM PM

    e|----------------------------------|
    b|----------------------------------|
GTR G|----------------------------------|
 2  D|----------------------------------|
    A|----------------------------------|
    D|-222-222---222--222--222------222-|
       P M P M   P M  P M  P M      P M

    e|-------------------------------------------------|
    b|-12-------13----12----10----15-13-12-13-12-10/12-|
GTR G|-------------------------------------------------|
 1  D|----14-14----14----14----14----------------------|
    A|-------------------------------------------------|
    D|-------------------------------------------------|
          PM PM    PM    PM    PM    

    e|----------------------------------|
    b|----------------------------------|
GTR G|----------------------------------|
 2  D|----------------------------------|
    A|----------------------------------|
    D|--222-222---222-222---222-222---2-|
        P M P M   P M P M   P M P M  PM

    e|-------------------------------------------------|
    b|-12-------13----12----15----13-------15-13-12h13-|
GTR G|-------------------------------------------------|
 1  D|----14-14----14----14----14----14-14-------------|
    A|-------------------------------------------------|
    D|-------------------------------------------------|
          PM PM    PM    PM    PM    PM PM

    e|----------------------------------|
    b|----------------------------------|
GTR G|----------------------------------|
 2  D|----------------------------------|
    A|----------------------------------|
    D|-222-222---222--222--222------222-|
       P M P M   P M  P M  P M      P M

    e|-------------------------------------------------|
    b|-12-------13----12----10----15-13-12-13-12-10/12-|
GTR G|-------------------------------------------------|
 1  D|----14-14----14----14----14----------------------|
    A|-------------------------------------------------|
    D|-------------------------------------------------|
          PM PM    PM    PM    PM    

    e|----------------------------------|
    b|----------------------------------|
GTR G|----------------------------------|
 2  D|--------------------------------0-|
    A|--------------------------------0-|
    D|--222-222---222-222---222-222---0-|
        P M P M   P M P M   P M P M  

Play whole riff x2

    e|---------------------------------|
    b|--------------7------7--------7--|
GTR G|--------------10-----10-------10-|
 1  D|---------------------------------|
    A|-0-0-------0------0--------------|
    D|-0-0-------0------0--------------|
       P M      PM     PM

    e|---------------------------------|
    b|--------------------------7------|
GTR G|--------------------------10-----|
 2  D|---------------------------------|
    A|------0-0------------------------|
    D|------0-0------------------------|
            P M

    e|------------------------------------|
    b|------------------7------7---7---7--|
GTR G|------------------10-----10--10--10-|
 1  D|------------------------------------| x4
    A|-0-0-----------0------0-------------|
    D|-0-0--00000000-0------0-------------|
       P M  PMPMPMPM PM     PM

    e|---------------------------------------|
    b|--------------------7-------7---7---7--|
GTR G|--------------------10------10--10--10-|
 2  D|-1-------------------------------------| x4
    A|-----------------0-------0-------------|
    D|---2-0-1-4-3-0-1-0-------0-------------|
                       PM      PM

    e|--------------------|
    b|-7------------------|
GTR G|-10-----------------|
1+2 D|--------------------|
    A|--------------------|
    D|--------------------|

SHOW ME MY WINGS THAT WORK

    e|---------------------------------------|
    b|--------------------7-------7---7---7--|
GTR G|--------------------10------10--10--10-|
1+2 D|-1-------------------------------------| x4
    A|-----------------0-------0-------------|
    D|---2-0-1-4-3-0-1-0-------0-------------|
       P M P M P M P M PM      PM

    e|---------------|
    b|-(7-)----------|
GTR G|-(10)-LET RING-|
1+2 D|---------------|
    A|---------------|
    D|---------------|
Tap to rate this tab
# A B C D E F G H I J K L M N O P Q R S T U V W X Y Z