Song name
# A B C D E F G H I J K L M N O P Q R S T U V W X Y Z

Renova - Cuanto Nos Ama tab

Canción: Nos Ama
Banda: Renova
Autor Original: John Mark McMillan

Esta es mi primera Tab, todo esta sacado por oído pero seguro les sirve, es muy sencilla 
y se oye genial.

Primero empieza con un pequeño Intro de batería y después viene la guitarra eléctrica 
con lo siguiente:

Afinación: Standard (EADGBE).

         x3
E------------------|-----------------------------|
A----5/7--7--7-----|--8--7--5--------------------|
D------------------|-----------------------------|
G------------------|-----------------------------|
B------------------|-----------------------------|
E------------------|-----------------------------|

        x3
E------------------|-----------------------------|
A----5/7--7--7-----|---10---10---10--------------|
D------------------|-----------------------------|
G------------------|-----------------------------|
B------------------|-----------------------------|
E------------------|-----------------------------|

       x3
E------------------|--------------------------------------|
A----5/7--7--7-----|--8--7--5---3/5--3--3--3--2--3--------|
D------------------|---------------------------------2/7--|
G------------------|--------------------------------------|
B------------------|--------------------------------------|
E------------------|--------------------------------------|

Después viene el verso con una serie de punteos, si los consigo los publicare lo mas 
rápido posible. ¡Suerte!

http://www.youtube.com/watch?v=3MROKyZ3a9g
Tap to rate this tab
# A B C D E F G H I J K L M N O P Q R S T U V W X Y Z