Song name
# A B C D E F G H I J K L M N O P Q R S T U V W X Y Z

Rent - I Should Tell You tab

-------------------------------------------------------------------------------
			I Should Tell You- Rent
-------------------------------------------------------------------------------
Tabbed by:JaZzTaStIc303
Email:atis0099@aim.com

Tuning:Standard

e|---2------------2----------------2--------------------2---------2---------- ---|
B|-------3--5--------3----5-3----------3-5-3-7-3-5-3--------3-5-3---3-5-3--------|
G|-------------------------------------------------------------------------------|
D|-------------------------------------------------------------------------------|
A|-------------------------------------------------------------------------------|
E|-------------------------------------------------------------------------------|

e|-2----------------------------------------------------------------------------|
B|---3-5-3-7-3-5----2-2-3-5-2-2-5-6---------------------------------------------|
G|------------------------------------------------------------------------------|
D|------------------------------------------------------------------------------|
A|------------------------------------------------------------------------------|
E|------------------------------------------------------------------------------|

so that's basically the main theme... listen to the recording for rhythms. if you have 
corrections to make, just email me :)


| /  slide up
| \  slide down
| h  hammer-on
| p  pull-off
| ~  vibrato
| +  harmonic
| x  Mute note
========================
Tap to rate this tab
 
# A B C D E F G H I J K L M N O P Q R S T U V W X Y Z