Song name
# A B C D E F G H I J K L M N O P Q R S T U V W X Y Z

Rent - Seasons Of Love tab

e-----8--3-----------------------------------|
b-----6--1-----------------------------------|
g-----------10--10--10----------10-----------|
d------------8---8---8---10--12--------------|
a--------------------------------------------|
e--------------------------------------------|


e--------------------------------------------|
b--------------------------------------------|
g--------------------------------------------|
d--------------------------------------------|
a----10--9--9--10--9--7--5---------7---------|
e-----8--7--7---8--7--5--3---7--9------------|

e--------------------------------------------|
b--------------------------------------------|
g--------------------------------------------|
d--------------------------------------------|
a----10--9--9--10--9--12--10---------7-------|
e-----8--7--7---8--7--10---8---7--9----------|

e--------------------------------------------|
b--------------------------------------------|
g--------------------------------------------|
d--------------------------------------------|
a----10--9--9--10--9--14--12--14--12--10-10--|
e-----8--7--7---8--7--12--10--12--10---8--8--|

e--------------------------------------------|
b--------------------------------------------|
g--------------------------------------------|
d--------------10--8--5--8--5--3-------------|
a---------7--7--8--6--7--6--7--1-------------|
e--7--9--------------------------------------|

just figure out where to play each section and you will be fine ^-^
Tap to rate this tab
 
# A B C D E F G H I J K L M N O P Q R S T U V W X Y Z