Song name
# A B C D E F G H I J K L M N O P Q R S T U V W X Y Z

Rent - Will I tab

Will I?

|-----1----1----1----1----1-----1--0--1----1--0--------|
|---1-----1---1-----1---1------1--3----3--1----1-------|
|-3------3---2-----2---3------3------------------------|
|----3--3------3--3------3--3--------------------------|
|------------------------------------------------------|
|------------------------------------------------------|

*Lyrics*

Will i lose my dig-ni-ty?
Will some-one care?______
Will I wake to-mor-row from
this night-mare?

~~~~~~~~~~~~~~~~~~~~~~~~~~~~~~~~~~~~~~~~~~~~~~~~~~~~~~

That's the entire thing.  Seriously, it never changes.

The only part that you need to be aware of other than
this is the chord progression at the very end.  In the
song's final stretch, (after the last 'this nightmare?')
the chords go like this:

Bbsus2       C/E      Dm7
--1-----------3--------5------------------------------------|
--1-----------5--------6------------------------------------|
--3-----------5--------5------------------------------------|
--3-----------5--------7------------------------------------|
--1-----------3--------5------------------------------------|
--x-----------0--------x------------------------------------|

Hold the last Dm7 chord.

Thanks for reading!
Tap to rate this tab
 
# A B C D E F G H I J K L M N O P Q R S T U V W X Y Z