Rent - Musettas Waltz tab

Musetta's Waltz from Your Eyes
From the Broadway musical Rent

I did not create this tab, I just simply modified to make it simpler for some
of the newer guitarists out there like myself. The original tab was created
with the intention to use barre chords. This one is modified to use a capo,
instead.

Capo on 5th Fret
Tabs relevant to Capo


e--3----------3-2------------2-0-|
b------0---3----------0--3-------|
g----0--------------0------------|
d--------------------------------|
a--------------------------------|
e--------------------------------|

e--0-2-3-2-0-3--------------0-2-0----2----------|
b----------------1-1-----3---------3-----0-0----|
g-----------------------------------------------|
d-----------------------------------------------|
a-----------------------------------------------|
e-----------------------------------------------|

e--3----------3-2------------2-0-|
b------0---3----------0--3-------|
g----0--------------0------------|
d--------------------------------|
a--------------------------------|
e--------------------------------|

e--0-2-3-10-7-------------------------------|
b--------------10-8-5----0-3----------------|
g-------------------------------------0-0---|
d----------------------------------5--------|
a-------------------------------------------|
e-------------------------------------------|



My First Tab. 
You guys rock on here!
Tap to rate this tab
 
# A B C D E F G H I J K L M N O P Q R S T U V W X Y Z