Song name
# A B C D E F G H I J K L M N O P Q R S T U V W X Y Z

Rent - I Should Tell You tab

I've only been able to figure out the beginning of the song, but hey at least it's a start, right?

I should tell you I'm disaster...
----------------------------------------------------|
-7-----7-----7-----7------7-----7-----7-----7-------|
--8-9-8-8-9-8-8-9-8-8-9----8-9-8-8-9-8-8-9-8-8-9-8--|
----------------------------------------------------|
----------------------------------------------------|
----------------------------------------------------|

I should tell you...
--------------------------------------------------|
--------------------------------------------------|
-6-6-6-6-6-7-7-7-6-6-6-6-6-7-7-7------------------|
--------------------------------------------------|
--------------------------------------------------|
--------------------------------------------------|

I should tell I blew the candle out...
---------------------------------------------------|
-7-----7-----7-----7------7-----7-----7-----7------|
--8-9-8-8-9-8-8-9-8-8-9----8-9-8-8-9-8-8-9-8-8-9-8-|
---------------------------------------------------|
---------------------------------------------------|
---------------------------------------------------|
Tap to rate this tab
 
# A B C D E F G H I J K L M N O P Q R S T U V W X Y Z