Guitaretab - guitar tabs
Song name
# A B C D E F G H I J K L M N O P Q R S T U V W X Y Z
Home / R / Rent / Will I tab

Rent - Will I tab

---------------------------------|
                 Will I? - Rent--|
Tabbed by:ThePunisher131
Email:ThePunisher131@hotmail.com

Tuning:normal

O.K. first of all this is my first tab but i didnt really do any of the work for it. 
unregistered guy put the tab on here so props to him, but all i am doing is simplifying it. 
just let me know what you think.

    Play with Capo on second fret. Tab relative to Capo.
[ Tab from: http://www.guitaretab.com/r/rent/67675.html ]
e|----------0---------0----------0------------0----------0-----------0-------|
B|------0-----------0---------0-------------0--------0-------------0---------|
G|----2-----------2---------1-------------1--------2-------------2-----------|
D|--------2-----2---------------2-------2--------------2------2--------------|
A|---------------------------------------------------------------------------|
E|---------------------------------------------------------------------------|
                      Then it goes into this quick little part
e|---------------------------------------------------------------------------|
B|----2--4--5--4--0--5--4--0-------------------------------------------------|
G|---------------------------------------------------------------------------|
D|---------------------------------------------------------------------------|
A|---------------------------------------------------------------------------|
E|---------------------------------------------------------------------------|
    Then Immediateley back to the beginning, it just plays that over and over till the end.... Enjoy
Related for Will I tab
Advertisement will be closed in 10 seconds